ISO-10303-21;
HEADER;
/****************************************************************
 * Generated by software with PDE/Lib inside                    *
 * PDE/Lib Version 3.2.6, created Mon Nov 19, 2001 at 18:43:38  *
 * International Technegroup Inc. (www.iti-oh.com)              *
 ****************************************************************/
FILE_DESCRIPTION((''),'2;1');
FILE_NAME('C:\\Documents and Settings\\Administrator\\My Documents\\TOGGLE CLAMP STEP FILES\\Vertical\\Ball Ended\\Accessories\\Base\\M20B.stp','2004-02-06T10:11:30',('Administrator'),(''),'Autodesk Inventor (R) 6.0','Autodesk Inventor (R) 6.0','');
FILE_SCHEMA(('AUTOMOTIVE_DESIGN { 1 0 10303 214 1 1 1 1 }'));
ENDSEC;
DATA;
#5=APPLICATION_CONTEXT('automotive design');
#6=APPLICATION_PROTOCOL_DEFINITION('Draft International Standard','automotive_design',1998,#5);
#7=PRODUCT_CONTEXT('None',#5,'mechanical');
#8=PRODUCT('M20B','M20B','None',(#7));
#9=PRODUCT_RELATED_PRODUCT_CATEGORY('part','description',(#8));
#10=PRODUCT_DEFINITION_FORMATION('None','None',#8);
#11=PRODUCT_DEFINITION_CONTEXT('part definition',#5,'design');
#12=PRODUCT_DEFINITION('None','None',#10,#11);
#18=(NAMED_UNIT(*)PLANE_ANGLE_UNIT()SI_UNIT($,.RADIAN.));
#19=DIMENSIONAL_EXPONENTS(0.0,0.0,0.0,0.0,0.0,0.0,0.0);
#20=PLANE_ANGLE_MEASURE_WITH_UNIT(PLANE_ANGLE_MEASURE(0.017453292500000),#18);
#24=(CONVERSION_BASED_UNIT('DEGREE',#20)NAMED_UNIT(#19)PLANE_ANGLE_UNIT());
#28=(NAMED_UNIT(*)SI_UNIT($,.STERADIAN.)SOLID_ANGLE_UNIT());
#32=(LENGTH_UNIT()NAMED_UNIT(*)SI_UNIT(.MILLI.,.METRE.));
#34=UNCERTAINTY_MEASURE_WITH_UNIT(LENGTH_MEASURE(0.000001000000000),#32,'DISTANCE_ACCURACY_VALUE','');
#36=(GEOMETRIC_REPRESENTATION_CONTEXT(3)GLOBAL_UNCERTAINTY_ASSIGNED_CONTEXT((#34))GLOBAL_UNIT_ASSIGNED_CONTEXT((#24,#28,#32))REPRESENTATION_CONTEXT('None','None'));
#37=AXIS2_PLACEMENT_3D('',#38,#39,#40);
#38=CARTESIAN_POINT('',(0.0,0.0,0.0));
#39=DIRECTION('',(0.0,0.0,1.0));
#40=DIRECTION('',(1.0,0.0,0.0));
#41=SHAPE_REPRESENTATION('',(#37),#36);
#42=PRODUCT_DEFINITION_SHAPE('','',#12);
#43=SHAPE_DEFINITION_REPRESENTATION(#42,#41);
#44=CARTESIAN_POINT('',(225.099902569806970,122.028858831422950,0.0));
#45=DIRECTION('',(0.0,0.0,1.0));
#46=DIRECTION('',(-1.0,0.0,0.0));
#47=AXIS2_PLACEMENT_3D('',#44,#45,#46);
#48=CYLINDRICAL_SURFACE('',#47,4.250000000000000);
#49=CARTESIAN_POINT('',(220.849902569806970,122.028858831422950,8.0));
#50=VERTEX_POINT('',#49);
#51=CARTESIAN_POINT('',(220.849902569806970,122.028858831422950,0.0));
#52=VERTEX_POINT('',#51);
#53=CARTESIAN_POINT('',(220.849902569806970,122.028858831422950,8.0));
#54=DIRECTION('',(0.0,0.0,-1.0));
#55=VECTOR('',#54,8.0);
#56=LINE('',#53,#55);
#57=EDGE_CURVE('',#50,#52,#56,.T.);
#58=ORIENTED_EDGE('',*,*,#57,.F.);
#59=CARTESIAN_POINT('',(229.349902569806970,122.028858831422950,8.0));
#60=VERTEX_POINT('',#59);
#61=CARTESIAN_POINT('',(225.099902569806970,122.028858831422950,8.0));
#62=DIRECTION('',(0.0,0.0,-1.0));
#63=DIRECTION('',(-1.0,0.0,0.0));
#64=AXIS2_PLACEMENT_3D('',#61,#62,#63);
#65=CIRCLE('',#64,4.250000000000000);
#66=EDGE_CURVE('',#60,#50,#65,.T.);
#67=ORIENTED_EDGE('',*,*,#66,.F.);
#68=CARTESIAN_POINT('',(229.349902569806970,122.028858831422950,0.0));
#69=VERTEX_POINT('',#68);
#70=CARTESIAN_POINT('',(229.349902569806970,122.028858831422950,0.0));
#71=DIRECTION('',(0.0,0.0,1.0));
#72=VECTOR('',#71,8.0);
#73=LINE('',#70,#72);
#74=EDGE_CURVE('',#69,#60,#73,.T.);
#75=ORIENTED_EDGE('',*,*,#74,.F.);
#76=CARTESIAN_POINT('',(225.099902569806970,122.028858831422950,0.0));
#77=DIRECTION('',(0.0,0.0,1.0));
#78=DIRECTION('',(-1.0,0.0,0.0));
#79=AXIS2_PLACEMENT_3D('',#76,#77,#78);
#80=CIRCLE('',#79,4.250000000000000);
#81=EDGE_CURVE('',#52,#69,#80,.T.);
#82=ORIENTED_EDGE('',*,*,#81,.F.);
#83=EDGE_LOOP('',(#58,#67,#75,#82));
#84=FACE_OUTER_BOUND('',#83,.T.);
#85=ADVANCED_FACE('',(#84),#48,.F.);
#86=CARTESIAN_POINT('',(180.099902569806970,122.028858831422950,0.0));
#87=DIRECTION('',(0.0,0.0,1.0));
#88=DIRECTION('',(-1.0,0.0,0.0));
#89=AXIS2_PLACEMENT_3D('',#86,#87,#88);
#90=CYLINDRICAL_SURFACE('',#89,4.250000000000000);
#91=CARTESIAN_POINT('',(175.849902569806970,122.028858831422950,8.0));
#92=VERTEX_POINT('',#91);
#93=CARTESIAN_POINT('',(175.849902569806970,122.028858831422950,0.0));
#94=VERTEX_POINT('',#93);
#95=CARTESIAN_POINT('',(175.849902569806970,122.028858831422950,8.0));
#96=DIRECTION('',(0.0,0.0,-1.0));
#97=VECTOR('',#96,8.0);
#98=LINE('',#95,#97);
#99=EDGE_CURVE('',#92,#94,#98,.T.);
#100=ORIENTED_EDGE('',*,*,#99,.F.);
#101=CARTESIAN_POINT('',(184.349902569806940,122.028858831422950,8.0));
#102=VERTEX_POINT('',#101);
#103=CARTESIAN_POINT('',(180.099902569806970,122.028858831422950,8.0));
#104=DIRECTION('',(0.0,0.0,-1.0));
#105=DIRECTION('',(-1.0,0.0,0.0));
#106=AXIS2_PLACEMENT_3D('',#103,#104,#105);
#107=CIRCLE('',#106,4.250000000000000);
#108=EDGE_CURVE('',#102,#92,#107,.T.);
#109=ORIENTED_EDGE('',*,*,#108,.F.);
#110=CARTESIAN_POINT('',(184.349902569806940,122.028858831422950,0.0));
#111=VERTEX_POINT('',#110);
#112=CARTESIAN_POINT('',(184.349902569806940,122.028858831422950,0.0));
#113=DIRECTION('',(0.0,0.0,1.0));
#114=VECTOR('',#113,8.0);
#115=LINE('',#112,#114);
#116=EDGE_CURVE('',#111,#102,#115,.T.);
#117=ORIENTED_EDGE('',*,*,#116,.F.);
#118=CARTESIAN_POINT('',(180.099902569806970,122.028858831422950,0.0));
#119=DIRECTION('',(0.0,0.0,1.0));
#120=DIRECTION('',(-1.0,0.0,0.0));
#121=AXIS2_PLACEMENT_3D('',#118,#119,#120);
#122=CIRCLE('',#121,4.250000000000000);
#123=EDGE_CURVE('',#94,#111,#122,.T.);
#124=ORIENTED_EDGE('',*,*,#123,.F.);
#125=EDGE_LOOP('',(#100,#109,#117,#124));
#126=FACE_OUTER_BOUND('',#125,.T.);
#127=ADVANCED_FACE('',(#126),#90,.F.);
#128=CARTESIAN_POINT('',(225.099902569806860,77.028858831422951,0.0));
#129=DIRECTION('',(0.0,0.0,1.0));
#130=DIRECTION('',(-1.0,0.0,0.0));
#131=AXIS2_PLACEMENT_3D('',#128,#129,#130);
#132=CYLINDRICAL_SURFACE('',#131,4.250000000000000);
#133=CARTESIAN_POINT('',(220.849902569806860,77.028858831422951,8.0));
#134=VERTEX_POINT('',#133);
#135=CARTESIAN_POINT('',(220.849902569806860,77.028858831422951,0.0));
#136=VERTEX_POINT('',#135);
#137=CARTESIAN_POINT('',(220.849902569806860,77.028858831422951,8.0));
#138=DIRECTION('',(0.0,0.0,-1.0));
#139=VECTOR('',#138,8.0);
#140=LINE('',#137,#139);
#141=EDGE_CURVE('',#134,#136,#140,.T.);
#142=ORIENTED_EDGE('',*,*,#141,.F.);
#143=CARTESIAN_POINT('',(229.349902569806860,77.028858831422951,8.0));
#144=VERTEX_POINT('',#143);
#145=CARTESIAN_POINT('',(225.099902569806860,77.028858831422951,8.0));
#146=DIRECTION('',(0.0,0.0,-1.0));
#147=DIRECTION('',(-1.0,0.0,0.0));
#148=AXIS2_PLACEMENT_3D('',#145,#146,#147);
#149=CIRCLE('',#148,4.250000000000000);
#150=EDGE_CURVE('',#144,#134,#149,.T.);
#151=ORIENTED_EDGE('',*,*,#150,.F.);
#152=CARTESIAN_POINT('',(229.349902569806860,77.028858831422951,0.0));
#153=VERTEX_POINT('',#152);
#154=CARTESIAN_POINT('',(229.349902569806860,77.028858831422951,0.0));
#155=DIRECTION('',(0.0,0.0,1.0));
#156=VECTOR('',#155,8.0);
#157=LINE('',#154,#156);
#158=EDGE_CURVE('',#153,#144,#157,.T.);
#159=ORIENTED_EDGE('',*,*,#158,.F.);
#160=CARTESIAN_POINT('',(225.099902569806860,77.028858831422951,0.0));
#161=DIRECTION('',(0.0,0.0,1.0));
#162=DIRECTION('',(-1.0,0.0,0.0));
#163=AXIS2_PLACEMENT_3D('',#160,#161,#162);
#164=CIRCLE('',#163,4.250000000000000);
#165=EDGE_CURVE('',#136,#153,#164,.T.);
#166=ORIENTED_EDGE('',*,*,#165,.F.);
#167=EDGE_LOOP('',(#142,#151,#159,#166));
#168=FACE_OUTER_BOUND('',#167,.T.);
#169=ADVANCED_FACE('',(#168),#132,.F.);
#170=CARTESIAN_POINT('',(180.099902569806890,77.028858831422937,0.0));
#171=DIRECTION('',(0.0,0.0,1.0));
#172=DIRECTION('',(-1.0,0.0,0.0));
#173=AXIS2_PLACEMENT_3D('',#170,#171,#172);
#174=CYLINDRICAL_SURFACE('',#173,4.250000000000000);
#175=CARTESIAN_POINT('',(175.849902569806890,77.028858831422937,8.0));
#176=VERTEX_POINT('',#175);
#177=CARTESIAN_POINT('',(175.849902569806890,77.028858831422937,0.0));
#178=VERTEX_POINT('',#177);
#179=CARTESIAN_POINT('',(175.849902569806890,77.028858831422937,8.0));
#180=DIRECTION('',(0.0,0.0,-1.0));
#181=VECTOR('',#180,8.0);
#182=LINE('',#179,#181);
#183=EDGE_CURVE('',#176,#178,#182,.T.);
#184=ORIENTED_EDGE('',*,*,#183,.F.);
#185=CARTESIAN_POINT('',(184.349902569806890,77.028858831422937,8.0));
#186=VERTEX_POINT('',#185);
#187=CARTESIAN_POINT('',(180.099902569806890,77.028858831422937,8.0));
#188=DIRECTION('',(0.0,0.0,-1.0));
#189=DIRECTION('',(-1.0,0.0,0.0));
#190=AXIS2_PLACEMENT_3D('',#187,#188,#189);
#191=CIRCLE('',#190,4.250000000000000);
#192=EDGE_CURVE('',#186,#176,#191,.T.);
#193=ORIENTED_EDGE('',*,*,#192,.F.);
#194=CARTESIAN_POINT('',(184.349902569806890,77.028858831422937,0.0));
#195=VERTEX_POINT('',#194);
#196=CARTESIAN_POINT('',(184.349902569806890,77.028858831422937,0.0));
#197=DIRECTION('',(0.0,0.0,1.0));
#198=VECTOR('',#197,8.0);
#199=LINE('',#196,#198);
#200=EDGE_CURVE('',#195,#186,#199,.T.);
#201=ORIENTED_EDGE('',*,*,#200,.F.);
#202=CARTESIAN_POINT('',(180.099902569806890,77.028858831422937,0.0));
#203=DIRECTION('',(0.0,0.0,1.0));
#204=DIRECTION('',(-1.0,0.0,0.0));
#205=AXIS2_PLACEMENT_3D('',#202,#203,#204);
#206=CIRCLE('',#205,4.250000000000000);
#207=EDGE_CURVE('',#178,#195,#206,.T.);
#208=ORIENTED_EDGE('',*,*,#207,.F.);
#209=EDGE_LOOP('',(#184,#193,#201,#208));
#210=FACE_OUTER_BOUND('',#209,.T.);
#211=ADVANCED_FACE('',(#210),#174,.F.);
#212=CARTESIAN_POINT('',(180.099902569806890,77.028858831422937,0.0));
#213=DIRECTION('',(0.0,0.0,1.0));
#214=DIRECTION('',(-1.0,0.0,0.0));
#215=AXIS2_PLACEMENT_3D('',#212,#213,#214);
#216=CYLINDRICAL_SURFACE('',#215,4.250000000000000);
#217=ORIENTED_EDGE('',*,*,#183,.T.);
#218=CARTESIAN_POINT('',(180.099902569806890,77.028858831422937,0.0));
#219=DIRECTION('',(0.0,0.0,1.0));
#220=DIRECTION('',(-1.0,0.0,0.0));
#221=AXIS2_PLACEMENT_3D('',#218,#219,#220);
#222=CIRCLE('',#221,4.250000000000000);
#223=EDGE_CURVE('',#195,#178,#222,.T.);
#224=ORIENTED_EDGE('',*,*,#223,.F.);
#225=ORIENTED_EDGE('',*,*,#200,.T.);
#226=CARTESIAN_POINT('',(180.099902569806890,77.028858831422937,8.0));
#227=DIRECTION('',(0.0,0.0,-1.0));
#228=DIRECTION('',(-1.0,0.0,0.0));
#229=AXIS2_PLACEMENT_3D('',#226,#227,#228);
#230=CIRCLE('',#229,4.250000000000000);
#231=EDGE_CURVE('',#176,#186,#230,.T.);
#232=ORIENTED_EDGE('',*,*,#231,.F.);
#233=EDGE_LOOP('',(#217,#224,#225,#232));
#234=FACE_OUTER_BOUND('',#233,.T.);
#235=ADVANCED_FACE('',(#234),#216,.F.);
#236=CARTESIAN_POINT('',(225.099902569806860,77.028858831422951,0.0));
#237=DIRECTION('',(0.0,0.0,1.0));
#238=DIRECTION('',(-1.0,0.0,0.0));
#239=AXIS2_PLACEMENT_3D('',#236,#237,#238);
#240=CYLINDRICAL_SURFACE('',#239,4.250000000000000);
#241=ORIENTED_EDGE('',*,*,#141,.T.);
#242=CARTESIAN_POINT('',(225.099902569806860,77.028858831422951,0.0));
#243=DIRECTION('',(0.0,0.0,1.0));
#244=DIRECTION('',(-1.0,0.0,0.0));
#245=AXIS2_PLACEMENT_3D('',#242,#243,#244);
#246=CIRCLE('',#245,4.250000000000000);
#247=EDGE_CURVE('',#153,#136,#246,.T.);
#248=ORIENTED_EDGE('',*,*,#247,.F.);
#249=ORIENTED_EDGE('',*,*,#158,.T.);
#250=CARTESIAN_POINT('',(225.099902569806860,77.028858831422951,8.0));
#251=DIRECTION('',(0.0,0.0,-1.0));
#252=DIRECTION('',(-1.0,0.0,0.0));
#253=AXIS2_PLACEMENT_3D('',#250,#251,#252);
#254=CIRCLE('',#253,4.250000000000000);
#255=EDGE_CURVE('',#134,#144,#254,.T.);
#256=ORIENTED_EDGE('',*,*,#255,.F.);
#257=EDGE_LOOP('',(#241,#248,#249,#256));
#258=FACE_OUTER_BOUND('',#257,.T.);
#259=ADVANCED_FACE('',(#258),#240,.F.);
#260=CARTESIAN_POINT('',(180.099902569806970,122.028858831422950,0.0));
#261=DIRECTION('',(0.0,0.0,1.0));
#262=DIRECTION('',(-1.0,0.0,0.0));
#263=AXIS2_PLACEMENT_3D('',#260,#261,#262);
#264=CYLINDRICAL_SURFACE('',#263,4.250000000000000);
#265=ORIENTED_EDGE('',*,*,#99,.T.);
#266=CARTESIAN_POINT('',(180.099902569806970,122.028858831422950,0.0));
#267=DIRECTION('',(0.0,0.0,1.0));
#268=DIRECTION('',(-1.0,0.0,0.0));
#269=AXIS2_PLACEMENT_3D('',#266,#267,#268);
#270=CIRCLE('',#269,4.250000000000000);
#271=EDGE_CURVE('',#111,#94,#270,.T.);
#272=ORIENTED_EDGE('',*,*,#271,.F.);
#273=ORIENTED_EDGE('',*,*,#116,.T.);
#274=CARTESIAN_POINT('',(180.099902569806970,122.028858831422950,8.0));
#275=DIRECTION('',(0.0,0.0,-1.0));
#276=DIRECTION('',(-1.0,0.0,0.0));
#277=AXIS2_PLACEMENT_3D('',#274,#275,#276);
#278=CIRCLE('',#277,4.250000000000000);
#279=EDGE_CURVE('',#92,#102,#278,.T.);
#280=ORIENTED_EDGE('',*,*,#279,.F.);
#281=EDGE_LOOP('',(#265,#272,#273,#280));
#282=FACE_OUTER_BOUND('',#281,.T.);
#283=ADVANCED_FACE('',(#282),#264,.F.);
#284=CARTESIAN_POINT('',(225.099902569806970,122.028858831422950,0.0));
#285=DIRECTION('',(0.0,0.0,1.0));
#286=DIRECTION('',(-1.0,0.0,0.0));
#287=AXIS2_PLACEMENT_3D('',#284,#285,#286);
#288=CYLINDRICAL_SURFACE('',#287,4.250000000000000);
#289=ORIENTED_EDGE('',*,*,#57,.T.);
#290=CARTESIAN_POINT('',(225.099902569806970,122.028858831422950,0.0));
#291=DIRECTION('',(0.0,0.0,1.0));
#292=DIRECTION('',(-1.0,0.0,0.0));
#293=AXIS2_PLACEMENT_3D('',#290,#291,#292);
#294=CIRCLE('',#293,4.250000000000000);
#295=EDGE_CURVE('',#69,#52,#294,.T.);
#296=ORIENTED_EDGE('',*,*,#295,.F.);
#297=ORIENTED_EDGE('',*,*,#74,.T.);
#298=CARTESIAN_POINT('',(225.099902569806970,122.028858831422950,8.0));
#299=DIRECTION('',(0.0,0.0,-1.0));
#300=DIRECTION('',(-1.0,0.0,0.0));
#301=AXIS2_PLACEMENT_3D('',#298,#299,#300);
#302=CIRCLE('',#301,4.250000000000000);
#303=EDGE_CURVE('',#50,#60,#302,.T.);
#304=ORIENTED_EDGE('',*,*,#303,.F.);
#305=EDGE_LOOP('',(#289,#296,#297,#304));
#306=FACE_OUTER_BOUND('',#305,.T.);
#307=ADVANCED_FACE('',(#306),#288,.F.);
#308=CARTESIAN_POINT('',(230.099902569806860,72.028858831422951,0.0));
#309=DIRECTION('',(0.0,0.0,1.0));
#310=DIRECTION('',(0.0,-1.0,0.0));
#311=AXIS2_PLACEMENT_3D('',#308,#309,#310);
#312=CYLINDRICAL_SURFACE('',#311,5.0);
#313=CARTESIAN_POINT('',(235.099902569806860,72.028858831422951,8.0));
#314=VERTEX_POINT('',#313);
#315=CARTESIAN_POINT('',(230.099902569806860,67.028858831422951,8.0));
#316=VERTEX_POINT('',#315);
#317=CARTESIAN_POINT('',(230.099902569806860,72.028858831422951,8.0));
#318=DIRECTION('',(0.0,0.0,-1.0));
#319=DIRECTION('',(0.0,-1.0,0.0));
#320=AXIS2_PLACEMENT_3D('',#317,#318,#319);
#321=CIRCLE('',#320,5.0);
#322=EDGE_CURVE('',#314,#316,#321,.T.);
#323=ORIENTED_EDGE('',*,*,#322,.T.);
#324=CARTESIAN_POINT('',(230.099902569806860,67.028858831422951,0.0));
#325=VERTEX_POINT('',#324);
#326=CARTESIAN_POINT('',(230.099902569806860,67.028858831422951,0.0));
#327=DIRECTION('',(0.0,0.0,1.0));
#328=VECTOR('',#327,8.0);
#329=LINE('',#326,#328);
#330=EDGE_CURVE('',#325,#316,#329,.T.);
#331=ORIENTED_EDGE('',*,*,#330,.F.);
#332=CARTESIAN_POINT('',(235.099902569806860,72.028858831422951,0.0));
#333=VERTEX_POINT('',#332);
#334=CARTESIAN_POINT('',(230.099902569806860,72.028858831422951,0.0));
#335=DIRECTION('',(0.0,0.0,1.0));
#336=DIRECTION('',(0.0,-1.0,0.0));
#337=AXIS2_PLACEMENT_3D('',#334,#335,#336);
#338=CIRCLE('',#337,5.0);
#339=EDGE_CURVE('',#325,#333,#338,.T.);
#340=ORIENTED_EDGE('',*,*,#339,.T.);
#341=CARTESIAN_POINT('',(235.099902569806860,72.028858831422951,0.0));
#342=DIRECTION('',(0.0,0.0,1.0));
#343=VECTOR('',#342,8.0);
#344=LINE('',#341,#343);
#345=EDGE_CURVE('',#333,#314,#344,.T.);
#346=ORIENTED_EDGE('',*,*,#345,.T.);
#347=EDGE_LOOP('',(#323,#331,#340,#346));
#348=FACE_OUTER_BOUND('',#347,.T.);
#349=ADVANCED_FACE('',(#348),#312,.T.);
#350=CARTESIAN_POINT('',(230.099902569806860,67.028858831422951,0.0));
#351=DIRECTION('',(0.0,-1.0,0.0));
#352=DIRECTION('',(0.0,0.0,-1.0));
#353=AXIS2_PLACEMENT_3D('',#350,#351,#352);
#354=PLANE('',#353);
#355=CARTESIAN_POINT('',(175.099902569806970,67.028858831422980,8.0));
#356=VERTEX_POINT('',#355);
#357=CARTESIAN_POINT('',(230.099902569806860,67.028858831422951,8.0));
#358=DIRECTION('',(-1.0,0.0,0.0));
#359=VECTOR('',#358,54.999999999999886);
#360=LINE('',#357,#359);
#361=EDGE_CURVE('',#316,#356,#360,.T.);
#362=ORIENTED_EDGE('',*,*,#361,.T.);
#363=CARTESIAN_POINT('',(175.099902569806970,67.028858831422980,0.0));
#364=VERTEX_POINT('',#363);
#365=CARTESIAN_POINT('',(175.099902569806970,67.028858831422980,0.0));
#366=DIRECTION('',(0.0,0.0,1.0));
#367=VECTOR('',#366,8.0);
#368=LINE('',#365,#367);
#369=EDGE_CURVE('',#364,#356,#368,.T.);
#370=ORIENTED_EDGE('',*,*,#369,.F.);
#371=CARTESIAN_POINT('',(175.099902569806970,67.028858831422980,0.0));
#372=DIRECTION('',(1.0,0.0,0.0));
#373=VECTOR('',#372,54.999999999999886);
#374=LINE('',#371,#373);
#375=EDGE_CURVE('',#364,#325,#374,.T.);
#376=ORIENTED_EDGE('',*,*,#375,.T.);
#377=ORIENTED_EDGE('',*,*,#330,.T.);
#378=EDGE_LOOP('',(#362,#370,#376,#377));
#379=FACE_OUTER_BOUND('',#378,.T.);
#380=ADVANCED_FACE('',(#379),#354,.T.);
#381=CARTESIAN_POINT('',(175.099902569806970,72.028858831422980,0.0));
#382=DIRECTION('',(0.0,0.0,1.0));
#383=DIRECTION('',(-1.0,0.0,0.0));
#384=AXIS2_PLACEMENT_3D('',#381,#382,#383);
#385=CYLINDRICAL_SURFACE('',#384,5.0);
#386=CARTESIAN_POINT('',(170.099902569806970,72.028858831422980,8.0));
#387=VERTEX_POINT('',#386);
#388=CARTESIAN_POINT('',(175.099902569806970,72.028858831422980,8.0));
#389=DIRECTION('',(0.0,0.0,-1.0));
#390=DIRECTION('',(-1.0,0.0,0.0));
#391=AXIS2_PLACEMENT_3D('',#388,#389,#390);
#392=CIRCLE('',#391,5.0);
#393=EDGE_CURVE('',#356,#387,#392,.T.);
#394=ORIENTED_EDGE('',*,*,#393,.T.);
#395=CARTESIAN_POINT('',(170.099902569806970,72.028858831422980,0.0));
#396=VERTEX_POINT('',#395);
#397=CARTESIAN_POINT('',(170.099902569806970,72.028858831422980,0.0));
#398=DIRECTION('',(0.0,0.0,1.0));
#399=VECTOR('',#398,8.0);
#400=LINE('',#397,#399);
#401=EDGE_CURVE('',#396,#387,#400,.T.);
#402=ORIENTED_EDGE('',*,*,#401,.F.);
#403=CARTESIAN_POINT('',(175.099902569806970,72.028858831422980,0.0));
#404=DIRECTION('',(0.0,0.0,1.0));
#405=DIRECTION('',(-1.0,0.0,0.0));
#406=AXIS2_PLACEMENT_3D('',#403,#404,#405);
#407=CIRCLE('',#406,5.0);
#408=EDGE_CURVE('',#396,#364,#407,.T.);
#409=ORIENTED_EDGE('',*,*,#408,.T.);
#410=ORIENTED_EDGE('',*,*,#369,.T.);
#411=EDGE_LOOP('',(#394,#402,#409,#410));
#412=FACE_OUTER_BOUND('',#411,.T.);
#413=ADVANCED_FACE('',(#412),#385,.T.);
#414=CARTESIAN_POINT('',(170.099902569806970,72.028858831422980,0.0));
#415=DIRECTION('',(-1.0,0.0,0.0));
#416=DIRECTION('',(0.0,0.0,1.0));
#417=AXIS2_PLACEMENT_3D('',#414,#415,#416);
#418=PLANE('',#417);
#419=CARTESIAN_POINT('',(170.099902569806970,127.028858831423010,8.0));
#420=VERTEX_POINT('',#419);
#421=CARTESIAN_POINT('',(170.099902569806970,72.028858831422980,8.0));
#422=DIRECTION('',(0.0,1.0,0.0));
#423=VECTOR('',#422,55.000000000000028);
#424=LINE('',#421,#423);
#425=EDGE_CURVE('',#387,#420,#424,.T.);
#426=ORIENTED_EDGE('',*,*,#425,.T.);
#427=CARTESIAN_POINT('',(170.099902569806970,127.028858831423010,0.0));
#428=VERTEX_POINT('',#427);
#429=CARTESIAN_POINT('',(170.099902569806970,127.028858831423010,0.0));
#430=DIRECTION('',(0.0,0.0,1.0));
#431=VECTOR('',#430,8.0);
#432=LINE('',#429,#431);
#433=EDGE_CURVE('',#428,#420,#432,.T.);
#434=ORIENTED_EDGE('',*,*,#433,.F.);
#435=CARTESIAN_POINT('',(170.099902569806970,127.028858831423010,0.0));
#436=DIRECTION('',(0.0,-1.0,0.0));
#437=VECTOR('',#436,55.000000000000028);
#438=LINE('',#435,#437);
#439=EDGE_CURVE('',#428,#396,#438,.T.);
#440=ORIENTED_EDGE('',*,*,#439,.T.);
#441=ORIENTED_EDGE('',*,*,#401,.T.);
#442=EDGE_LOOP('',(#426,#434,#440,#441));
#443=FACE_OUTER_BOUND('',#442,.T.);
#444=ADVANCED_FACE('',(#443),#418,.T.);
#445=CARTESIAN_POINT('',(175.099902569806970,127.028858831423010,0.0));
#446=DIRECTION('',(0.0,0.0,1.0));
#447=DIRECTION('',(0.0,1.0,0.0));
#448=AXIS2_PLACEMENT_3D('',#445,#446,#447);
#449=CYLINDRICAL_SURFACE('',#448,5.0);
#450=CARTESIAN_POINT('',(175.099902569806970,132.028858831422980,8.0));
#451=VERTEX_POINT('',#450);
#452=CARTESIAN_POINT('',(175.099902569806970,127.028858831423010,8.0));
#453=DIRECTION('',(0.0,0.0,-1.0));
#454=DIRECTION('',(0.0,1.0,0.0));
#455=AXIS2_PLACEMENT_3D('',#452,#453,#454);
#456=CIRCLE('',#455,5.0);
#457=EDGE_CURVE('',#420,#451,#456,.T.);
#458=ORIENTED_EDGE('',*,*,#457,.T.);
#459=CARTESIAN_POINT('',(175.099902569806970,132.028858831422980,0.0));
#460=VERTEX_POINT('',#459);
#461=CARTESIAN_POINT('',(175.099902569806970,132.028858831422980,0.0));
#462=DIRECTION('',(0.0,0.0,1.0));
#463=VECTOR('',#462,8.0);
#464=LINE('',#461,#463);
#465=EDGE_CURVE('',#460,#451,#464,.T.);
#466=ORIENTED_EDGE('',*,*,#465,.F.);
#467=CARTESIAN_POINT('',(175.099902569806970,127.028858831423010,0.0));
#468=DIRECTION('',(0.0,0.0,1.0));
#469=DIRECTION('',(0.0,1.0,0.0));
#470=AXIS2_PLACEMENT_3D('',#467,#468,#469);
#471=CIRCLE('',#470,5.0);
#472=EDGE_CURVE('',#460,#428,#471,.T.);
#473=ORIENTED_EDGE('',*,*,#472,.T.);
#474=ORIENTED_EDGE('',*,*,#433,.T.);
#475=EDGE_LOOP('',(#458,#466,#473,#474));
#476=FACE_OUTER_BOUND('',#475,.T.);
#477=ADVANCED_FACE('',(#476),#449,.T.);
#478=CARTESIAN_POINT('',(175.099902569806970,132.028858831422980,0.0));
#479=DIRECTION('',(0.0,1.0,0.0));
#480=DIRECTION('',(0.0,0.0,1.0));
#481=AXIS2_PLACEMENT_3D('',#478,#479,#480);
#482=PLANE('',#481);
#483=CARTESIAN_POINT('',(230.099902569806860,132.028858831422950,8.0));
#484=VERTEX_POINT('',#483);
#485=CARTESIAN_POINT('',(175.099902569806970,132.028858831422980,8.0));
#486=DIRECTION('',(1.0,0.0,0.0));
#487=VECTOR('',#486,54.999999999999886);
#488=LINE('',#485,#487);
#489=EDGE_CURVE('',#451,#484,#488,.T.);
#490=ORIENTED_EDGE('',*,*,#489,.T.);
#491=CARTESIAN_POINT('',(230.099902569806860,132.028858831422950,0.0));
#492=VERTEX_POINT('',#491);
#493=CARTESIAN_POINT('',(230.099902569806860,132.028858831422950,0.0));
#494=DIRECTION('',(0.0,0.0,1.0));
#495=VECTOR('',#494,8.0);
#496=LINE('',#493,#495);
#497=EDGE_CURVE('',#492,#484,#496,.T.);
#498=ORIENTED_EDGE('',*,*,#497,.F.);
#499=CARTESIAN_POINT('',(230.099902569806860,132.028858831422950,0.0));
#500=DIRECTION('',(-1.0,0.0,0.0));
#501=VECTOR('',#500,54.999999999999886);
#502=LINE('',#499,#501);
#503=EDGE_CURVE('',#492,#460,#502,.T.);
#504=ORIENTED_EDGE('',*,*,#503,.T.);
#505=ORIENTED_EDGE('',*,*,#465,.T.);
#506=EDGE_LOOP('',(#490,#498,#504,#505));
#507=FACE_OUTER_BOUND('',#506,.T.);
#508=ADVANCED_FACE('',(#507),#482,.T.);
#509=CARTESIAN_POINT('',(230.099902569806860,127.028858831422940,0.0));
#510=DIRECTION('',(0.0,0.0,1.0));
#511=DIRECTION('',(1.0,0.0,0.0));
#512=AXIS2_PLACEMENT_3D('',#509,#510,#511);
#513=CYLINDRICAL_SURFACE('',#512,5.0);
#514=CARTESIAN_POINT('',(235.099902569806860,127.028858831422940,8.0));
#515=VERTEX_POINT('',#514);
#516=CARTESIAN_POINT('',(230.099902569806860,127.028858831422940,8.0));
#517=DIRECTION('',(0.0,0.0,-1.0));
#518=DIRECTION('',(1.0,0.0,0.0));
#519=AXIS2_PLACEMENT_3D('',#516,#517,#518);
#520=CIRCLE('',#519,5.0);
#521=EDGE_CURVE('',#484,#515,#520,.T.);
#522=ORIENTED_EDGE('',*,*,#521,.T.);
#523=CARTESIAN_POINT('',(235.099902569806860,127.028858831422940,0.0));
#524=VERTEX_POINT('',#523);
#525=CARTESIAN_POINT('',(235.099902569806860,127.028858831422940,0.0));
#526=DIRECTION('',(0.0,0.0,1.0));
#527=VECTOR('',#526,8.0);
#528=LINE('',#525,#527);
#529=EDGE_CURVE('',#524,#515,#528,.T.);
#530=ORIENTED_EDGE('',*,*,#529,.F.);
#531=CARTESIAN_POINT('',(230.099902569806860,127.028858831422940,0.0));
#532=DIRECTION('',(0.0,0.0,1.0));
#533=DIRECTION('',(1.0,0.0,0.0));
#534=AXIS2_PLACEMENT_3D('',#531,#532,#533);
#535=CIRCLE('',#534,5.0);
#536=EDGE_CURVE('',#524,#492,#535,.T.);
#537=ORIENTED_EDGE('',*,*,#536,.T.);
#538=ORIENTED_EDGE('',*,*,#497,.T.);
#539=EDGE_LOOP('',(#522,#530,#537,#538));
#540=FACE_OUTER_BOUND('',#539,.T.);
#541=ADVANCED_FACE('',(#540),#513,.T.);
#542=CARTESIAN_POINT('',(235.099902569806860,127.028858831422940,0.0));
#543=DIRECTION('',(1.0,0.0,0.0));
#544=DIRECTION('',(0.0,0.0,-1.0));
#545=AXIS2_PLACEMENT_3D('',#542,#543,#544);
#546=PLANE('',#545);
#547=CARTESIAN_POINT('',(235.099902569806860,127.028858831422940,8.0));
#548=DIRECTION('',(0.0,-1.0,0.0));
#549=VECTOR('',#548,54.999999999999986);
#550=LINE('',#547,#549);
#551=EDGE_CURVE('',#515,#314,#550,.T.);
#552=ORIENTED_EDGE('',*,*,#551,.T.);
#553=ORIENTED_EDGE('',*,*,#345,.F.);
#554=CARTESIAN_POINT('',(235.099902569806860,72.028858831422951,0.0));
#555=DIRECTION('',(0.0,1.0,0.0));
#556=VECTOR('',#555,54.999999999999986);
#557=LINE('',#554,#556);
#558=EDGE_CURVE('',#333,#524,#557,.T.);
#559=ORIENTED_EDGE('',*,*,#558,.T.);
#560=ORIENTED_EDGE('',*,*,#529,.T.);
#561=EDGE_LOOP('',(#552,#553,#559,#560));
#562=FACE_OUTER_BOUND('',#561,.T.);
#563=ADVANCED_FACE('',(#562),#546,.T.);
#564=CARTESIAN_POINT('',(202.599902569806860,99.528858831422951,0.0));
#565=DIRECTION('',(0.0,0.0,1.0));
#566=DIRECTION('',(1.0,0.0,0.0));
#567=AXIS2_PLACEMENT_3D('',#564,#565,#566);
#568=PLANE('',#567);
#569=ORIENTED_EDGE('',*,*,#558,.F.);
#570=ORIENTED_EDGE('',*,*,#339,.F.);
#571=ORIENTED_EDGE('',*,*,#375,.F.);
#572=ORIENTED_EDGE('',*,*,#408,.F.);
#573=ORIENTED_EDGE('',*,*,#439,.F.);
#574=ORIENTED_EDGE('',*,*,#472,.F.);
#575=ORIENTED_EDGE('',*,*,#503,.F.);
#576=ORIENTED_EDGE('',*,*,#536,.F.);
#577=EDGE_LOOP('',(#569,#570,#571,#572,#573,#574,#575,#576));
#578=FACE_OUTER_BOUND('',#577,.T.);
#579=ORIENTED_EDGE('',*,*,#223,.T.);
#580=ORIENTED_EDGE('',*,*,#207,.T.);
#581=EDGE_LOOP('',(#579,#580));
#582=FACE_BOUND('',#581,.T.);
#583=ORIENTED_EDGE('',*,*,#247,.T.);
#584=ORIENTED_EDGE('',*,*,#165,.T.);
#585=EDGE_LOOP('',(#583,#584));
#586=FACE_BOUND('',#585,.T.);
#587=ORIENTED_EDGE('',*,*,#271,.T.);
#588=ORIENTED_EDGE('',*,*,#123,.T.);
#589=EDGE_LOOP('',(#587,#588));
#590=FACE_BOUND('',#589,.T.);
#591=ORIENTED_EDGE('',*,*,#295,.T.);
#592=ORIENTED_EDGE('',*,*,#81,.T.);
#593=EDGE_LOOP('',(#591,#592));
#594=FACE_BOUND('',#593,.T.);
#595=ADVANCED_FACE('',(#578,#582,#586,#590,#594),#568,.F.);
#596=CARTESIAN_POINT('',(202.599902569806860,99.528858831422937,8.0));
#597=DIRECTION('',(0.0,0.0,1.0));
#598=DIRECTION('',(1.0,0.0,0.0));
#599=AXIS2_PLACEMENT_3D('',#596,#597,#598);
#600=PLANE('',#599);
#601=ORIENTED_EDGE('',*,*,#322,.F.);
#602=ORIENTED_EDGE('',*,*,#551,.F.);
#603=ORIENTED_EDGE('',*,*,#521,.F.);
#604=ORIENTED_EDGE('',*,*,#489,.F.);
#605=ORIENTED_EDGE('',*,*,#457,.F.);
#606=ORIENTED_EDGE('',*,*,#425,.F.);
#607=ORIENTED_EDGE('',*,*,#393,.F.);
#608=ORIENTED_EDGE('',*,*,#361,.F.);
#609=EDGE_LOOP('',(#601,#602,#603,#604,#605,#606,#607,#608));
#610=FACE_OUTER_BOUND('',#609,.T.);
#611=ORIENTED_EDGE('',*,*,#192,.T.);
#612=ORIENTED_EDGE('',*,*,#231,.T.);
#613=EDGE_LOOP('',(#611,#612));
#614=FACE_BOUND('',#613,.T.);
#615=ORIENTED_EDGE('',*,*,#150,.T.);
#616=ORIENTED_EDGE('',*,*,#255,.T.);
#617=EDGE_LOOP('',(#615,#616));
#618=FACE_BOUND('',#617,.T.);
#619=ORIENTED_EDGE('',*,*,#108,.T.);
#620=ORIENTED_EDGE('',*,*,#279,.T.);
#621=EDGE_LOOP('',(#619,#620));
#622=FACE_BOUND('',#621,.T.);
#623=ORIENTED_EDGE('',*,*,#66,.T.);
#624=ORIENTED_EDGE('',*,*,#303,.T.);
#625=EDGE_LOOP('',(#623,#624));
#626=FACE_BOUND('',#625,.T.);
#627=ADVANCED_FACE('',(#610,#614,#618,#622,#626),#600,.T.);
#628=CLOSED_SHELL('',(#85,#127,#169,#211,#235,#259,#283,#307,#349,#380,#413,#444,#477,#508,#541,#563,#595,#627));
#629=MANIFOLD_SOLID_BREP('',#628);
#630=COLOUR_RGB('Default',0.752941191196442,0.752941191196442,0.752941191196442);
#631=FILL_AREA_STYLE_COLOUR('Default',#630);
#632=FILL_AREA_STYLE('Default',(#631));
#633=SURFACE_STYLE_FILL_AREA(#632);
#634=SURFACE_SIDE_STYLE('Default',(#633));
#635=SURFACE_STYLE_USAGE(.BOTH.,#634);
#636=PRESENTATION_STYLE_ASSIGNMENT((#635));
#637=STYLED_ITEM('',(#636),#629);
#638=MECHANICAL_DESIGN_GEOMETRIC_PRESENTATION_REPRESENTATION('',(#637),#36);
#639=ADVANCED_BREP_SHAPE_REPRESENTATION('ABSR',(#629),#36);
#640=SHAPE_REPRESENTATION_RELATIONSHIP('SRR','None',#639,#41);
ENDSEC;
END-ISO-10303-21;
