ISO-10303-21;
HEADER;
/****************************************************************
 * Generated by software with PDE/Lib inside                    *
 * PDE/Lib Version 3.2.6, created Mon Nov 19, 2001 at 18:43:38  *
 * International Technegroup Inc. (www.iti-oh.com)              *
 ****************************************************************/
FILE_DESCRIPTION((''),'2;1');
FILE_NAME('C:\\Documents and Settings\\Administrator\\My Documents\\TOGGLE CLAMP STEP FILES\\Vertical\\Ball Ended\\Accessories\\Base\\M30B.stp','2004-02-06T10:11:53',('Administrator'),(''),'Autodesk Inventor (R) 6.0','Autodesk Inventor (R) 6.0','');
FILE_SCHEMA(('AUTOMOTIVE_DESIGN { 1 0 10303 214 1 1 1 1 }'));
ENDSEC;
DATA;
#5=APPLICATION_CONTEXT('automotive design');
#6=APPLICATION_PROTOCOL_DEFINITION('Draft International Standard','automotive_design',1998,#5);
#7=PRODUCT_CONTEXT('None',#5,'mechanical');
#8=PRODUCT('M30B','M30B','None',(#7));
#9=PRODUCT_RELATED_PRODUCT_CATEGORY('part','description',(#8));
#10=PRODUCT_DEFINITION_FORMATION('None','None',#8);
#11=PRODUCT_DEFINITION_CONTEXT('part definition',#5,'design');
#12=PRODUCT_DEFINITION('None','None',#10,#11);
#18=(NAMED_UNIT(*)PLANE_ANGLE_UNIT()SI_UNIT($,.RADIAN.));
#19=DIMENSIONAL_EXPONENTS(0.0,0.0,0.0,0.0,0.0,0.0,0.0);
#20=PLANE_ANGLE_MEASURE_WITH_UNIT(PLANE_ANGLE_MEASURE(0.017453292500000),#18);
#24=(CONVERSION_BASED_UNIT('DEGREE',#20)NAMED_UNIT(#19)PLANE_ANGLE_UNIT());
#28=(NAMED_UNIT(*)SI_UNIT($,.STERADIAN.)SOLID_ANGLE_UNIT());
#32=(LENGTH_UNIT()NAMED_UNIT(*)SI_UNIT(.MILLI.,.METRE.));
#34=UNCERTAINTY_MEASURE_WITH_UNIT(LENGTH_MEASURE(0.000001000000000),#32,'DISTANCE_ACCURACY_VALUE','');
#36=(GEOMETRIC_REPRESENTATION_CONTEXT(3)GLOBAL_UNCERTAINTY_ASSIGNED_CONTEXT((#34))GLOBAL_UNIT_ASSIGNED_CONTEXT((#24,#28,#32))REPRESENTATION_CONTEXT('None','None'));
#37=AXIS2_PLACEMENT_3D('',#38,#39,#40);
#38=CARTESIAN_POINT('',(0.0,0.0,0.0));
#39=DIRECTION('',(0.0,0.0,1.0));
#40=DIRECTION('',(1.0,0.0,0.0));
#41=SHAPE_REPRESENTATION('',(#37),#36);
#42=PRODUCT_DEFINITION_SHAPE('','',#12);
#43=SHAPE_DEFINITION_REPRESENTATION(#42,#41);
#44=CARTESIAN_POINT('',(210.181897640787580,233.531126281254020,0.0));
#45=DIRECTION('',(0.0,0.0,1.0));
#46=DIRECTION('',(-1.0,0.0,0.0));
#47=AXIS2_PLACEMENT_3D('',#44,#45,#46);
#48=CYLINDRICAL_SURFACE('',#47,4.250000000000000);
#49=CARTESIAN_POINT('',(205.931897640787580,233.531126281254020,10.0));
#50=VERTEX_POINT('',#49);
#51=CARTESIAN_POINT('',(205.931897640787580,233.531126281254020,0.0));
#52=VERTEX_POINT('',#51);
#53=CARTESIAN_POINT('',(205.931897640787580,233.531126281254020,10.0));
#54=DIRECTION('',(0.0,0.0,-1.0));
#55=VECTOR('',#54,10.0);
#56=LINE('',#53,#55);
#57=EDGE_CURVE('',#50,#52,#56,.T.);
#58=ORIENTED_EDGE('',*,*,#57,.F.);
#59=CARTESIAN_POINT('',(214.431897640787640,233.531126281254020,10.0));
#60=VERTEX_POINT('',#59);
#61=CARTESIAN_POINT('',(210.181897640787580,233.531126281254020,10.0));
#62=DIRECTION('',(0.0,0.0,-1.0));
#63=DIRECTION('',(-1.0,0.0,0.0));
#64=AXIS2_PLACEMENT_3D('',#61,#62,#63);
#65=CIRCLE('',#64,4.250000000000000);
#66=EDGE_CURVE('',#60,#50,#65,.T.);
#67=ORIENTED_EDGE('',*,*,#66,.F.);
#68=CARTESIAN_POINT('',(214.431897640787640,233.531126281254020,0.0));
#69=VERTEX_POINT('',#68);
#70=CARTESIAN_POINT('',(214.431897640787640,233.531126281254020,0.0));
#71=DIRECTION('',(0.0,0.0,1.0));
#72=VECTOR('',#71,10.0);
#73=LINE('',#70,#72);
#74=EDGE_CURVE('',#69,#60,#73,.T.);
#75=ORIENTED_EDGE('',*,*,#74,.F.);
#76=CARTESIAN_POINT('',(210.181897640787580,233.531126281254020,0.0));
#77=DIRECTION('',(0.0,0.0,1.0));
#78=DIRECTION('',(-1.0,0.0,0.0));
#79=AXIS2_PLACEMENT_3D('',#76,#77,#78);
#80=CIRCLE('',#79,4.250000000000000);
#81=EDGE_CURVE('',#52,#69,#80,.T.);
#82=ORIENTED_EDGE('',*,*,#81,.F.);
#83=EDGE_LOOP('',(#58,#67,#75,#82));
#84=FACE_OUTER_BOUND('',#83,.T.);
#85=ADVANCED_FACE('',(#84),#48,.F.);
#86=CARTESIAN_POINT('',(159.181897640787580,233.531126281254020,0.0));
#87=DIRECTION('',(0.0,0.0,1.0));
#88=DIRECTION('',(-1.0,0.0,0.0));
#89=AXIS2_PLACEMENT_3D('',#86,#87,#88);
#90=CYLINDRICAL_SURFACE('',#89,4.250000000000000);
#91=CARTESIAN_POINT('',(154.931897640787580,233.531126281254020,10.0));
#92=VERTEX_POINT('',#91);
#93=CARTESIAN_POINT('',(154.931897640787580,233.531126281254020,0.0));
#94=VERTEX_POINT('',#93);
#95=CARTESIAN_POINT('',(154.931897640787580,233.531126281254020,10.0));
#96=DIRECTION('',(0.0,0.0,-1.0));
#97=VECTOR('',#96,10.0);
#98=LINE('',#95,#97);
#99=EDGE_CURVE('',#92,#94,#98,.T.);
#100=ORIENTED_EDGE('',*,*,#99,.F.);
#101=CARTESIAN_POINT('',(163.431897640787580,233.531126281254020,10.0));
#102=VERTEX_POINT('',#101);
#103=CARTESIAN_POINT('',(159.181897640787580,233.531126281254020,10.0));
#104=DIRECTION('',(0.0,0.0,-1.0));
#105=DIRECTION('',(-1.0,0.0,0.0));
#106=AXIS2_PLACEMENT_3D('',#103,#104,#105);
#107=CIRCLE('',#106,4.250000000000000);
#108=EDGE_CURVE('',#102,#92,#107,.T.);
#109=ORIENTED_EDGE('',*,*,#108,.F.);
#110=CARTESIAN_POINT('',(163.431897640787580,233.531126281254020,0.0));
#111=VERTEX_POINT('',#110);
#112=CARTESIAN_POINT('',(163.431897640787580,233.531126281254020,0.0));
#113=DIRECTION('',(0.0,0.0,1.0));
#114=VECTOR('',#113,10.0);
#115=LINE('',#112,#114);
#116=EDGE_CURVE('',#111,#102,#115,.T.);
#117=ORIENTED_EDGE('',*,*,#116,.F.);
#118=CARTESIAN_POINT('',(159.181897640787580,233.531126281254020,0.0));
#119=DIRECTION('',(0.0,0.0,1.0));
#120=DIRECTION('',(-1.0,0.0,0.0));
#121=AXIS2_PLACEMENT_3D('',#118,#119,#120);
#122=CIRCLE('',#121,4.250000000000000);
#123=EDGE_CURVE('',#94,#111,#122,.T.);
#124=ORIENTED_EDGE('',*,*,#123,.F.);
#125=EDGE_LOOP('',(#100,#109,#117,#124));
#126=FACE_OUTER_BOUND('',#125,.T.);
#127=ADVANCED_FACE('',(#126),#90,.F.);
#128=CARTESIAN_POINT('',(210.181897640787580,182.531126281253960,0.0));
#129=DIRECTION('',(0.0,0.0,1.0));
#130=DIRECTION('',(-1.0,0.0,0.0));
#131=AXIS2_PLACEMENT_3D('',#128,#129,#130);
#132=CYLINDRICAL_SURFACE('',#131,4.250000000000000);
#133=CARTESIAN_POINT('',(205.931897640787580,182.531126281253960,10.0));
#134=VERTEX_POINT('',#133);
#135=CARTESIAN_POINT('',(205.931897640787580,182.531126281253960,0.0));
#136=VERTEX_POINT('',#135);
#137=CARTESIAN_POINT('',(205.931897640787580,182.531126281253960,10.0));
#138=DIRECTION('',(0.0,0.0,-1.0));
#139=VECTOR('',#138,10.0);
#140=LINE('',#137,#139);
#141=EDGE_CURVE('',#134,#136,#140,.T.);
#142=ORIENTED_EDGE('',*,*,#141,.F.);
#143=CARTESIAN_POINT('',(214.431897640787640,182.531126281253960,10.0));
#144=VERTEX_POINT('',#143);
#145=CARTESIAN_POINT('',(210.181897640787580,182.531126281253960,10.0));
#146=DIRECTION('',(0.0,0.0,-1.0));
#147=DIRECTION('',(-1.0,0.0,0.0));
#148=AXIS2_PLACEMENT_3D('',#145,#146,#147);
#149=CIRCLE('',#148,4.250000000000000);
#150=EDGE_CURVE('',#144,#134,#149,.T.);
#151=ORIENTED_EDGE('',*,*,#150,.F.);
#152=CARTESIAN_POINT('',(214.431897640787640,182.531126281253960,0.0));
#153=VERTEX_POINT('',#152);
#154=CARTESIAN_POINT('',(214.431897640787640,182.531126281253960,0.0));
#155=DIRECTION('',(0.0,0.0,1.0));
#156=VECTOR('',#155,10.0);
#157=LINE('',#154,#156);
#158=EDGE_CURVE('',#153,#144,#157,.T.);
#159=ORIENTED_EDGE('',*,*,#158,.F.);
#160=CARTESIAN_POINT('',(210.181897640787580,182.531126281253960,0.0));
#161=DIRECTION('',(0.0,0.0,1.0));
#162=DIRECTION('',(-1.0,0.0,0.0));
#163=AXIS2_PLACEMENT_3D('',#160,#161,#162);
#164=CIRCLE('',#163,4.250000000000000);
#165=EDGE_CURVE('',#136,#153,#164,.T.);
#166=ORIENTED_EDGE('',*,*,#165,.F.);
#167=EDGE_LOOP('',(#142,#151,#159,#166));
#168=FACE_OUTER_BOUND('',#167,.T.);
#169=ADVANCED_FACE('',(#168),#132,.F.);
#170=CARTESIAN_POINT('',(159.181897640787580,182.531126281253990,0.0));
#171=DIRECTION('',(0.0,0.0,1.0));
#172=DIRECTION('',(-1.0,0.0,0.0));
#173=AXIS2_PLACEMENT_3D('',#170,#171,#172);
#174=CYLINDRICAL_SURFACE('',#173,4.250000000000000);
#175=CARTESIAN_POINT('',(154.931897640787580,182.531126281253990,10.0));
#176=VERTEX_POINT('',#175);
#177=CARTESIAN_POINT('',(154.931897640787580,182.531126281253990,0.0));
#178=VERTEX_POINT('',#177);
#179=CARTESIAN_POINT('',(154.931897640787580,182.531126281253990,10.0));
#180=DIRECTION('',(0.0,0.0,-1.0));
#181=VECTOR('',#180,10.0);
#182=LINE('',#179,#181);
#183=EDGE_CURVE('',#176,#178,#182,.T.);
#184=ORIENTED_EDGE('',*,*,#183,.F.);
#185=CARTESIAN_POINT('',(163.431897640787580,182.531126281253990,10.0));
#186=VERTEX_POINT('',#185);
#187=CARTESIAN_POINT('',(159.181897640787580,182.531126281253990,10.0));
#188=DIRECTION('',(0.0,0.0,-1.0));
#189=DIRECTION('',(-1.0,0.0,0.0));
#190=AXIS2_PLACEMENT_3D('',#187,#188,#189);
#191=CIRCLE('',#190,4.250000000000000);
#192=EDGE_CURVE('',#186,#176,#191,.T.);
#193=ORIENTED_EDGE('',*,*,#192,.F.);
#194=CARTESIAN_POINT('',(163.431897640787580,182.531126281253990,0.0));
#195=VERTEX_POINT('',#194);
#196=CARTESIAN_POINT('',(163.431897640787580,182.531126281253990,0.0));
#197=DIRECTION('',(0.0,0.0,1.0));
#198=VECTOR('',#197,10.0);
#199=LINE('',#196,#198);
#200=EDGE_CURVE('',#195,#186,#199,.T.);
#201=ORIENTED_EDGE('',*,*,#200,.F.);
#202=CARTESIAN_POINT('',(159.181897640787580,182.531126281253990,0.0));
#203=DIRECTION('',(0.0,0.0,1.0));
#204=DIRECTION('',(-1.0,0.0,0.0));
#205=AXIS2_PLACEMENT_3D('',#202,#203,#204);
#206=CIRCLE('',#205,4.250000000000000);
#207=EDGE_CURVE('',#178,#195,#206,.T.);
#208=ORIENTED_EDGE('',*,*,#207,.F.);
#209=EDGE_LOOP('',(#184,#193,#201,#208));
#210=FACE_OUTER_BOUND('',#209,.T.);
#211=ADVANCED_FACE('',(#210),#174,.F.);
#212=CARTESIAN_POINT('',(159.181897640787580,182.531126281253990,0.0));
#213=DIRECTION('',(0.0,0.0,1.0));
#214=DIRECTION('',(-1.0,0.0,0.0));
#215=AXIS2_PLACEMENT_3D('',#212,#213,#214);
#216=CYLINDRICAL_SURFACE('',#215,4.250000000000000);
#217=ORIENTED_EDGE('',*,*,#183,.T.);
#218=CARTESIAN_POINT('',(159.181897640787580,182.531126281253990,0.0));
#219=DIRECTION('',(0.0,0.0,1.0));
#220=DIRECTION('',(-1.0,0.0,0.0));
#221=AXIS2_PLACEMENT_3D('',#218,#219,#220);
#222=CIRCLE('',#221,4.250000000000000);
#223=EDGE_CURVE('',#195,#178,#222,.T.);
#224=ORIENTED_EDGE('',*,*,#223,.F.);
#225=ORIENTED_EDGE('',*,*,#200,.T.);
#226=CARTESIAN_POINT('',(159.181897640787580,182.531126281253990,10.0));
#227=DIRECTION('',(0.0,0.0,-1.0));
#228=DIRECTION('',(-1.0,0.0,0.0));
#229=AXIS2_PLACEMENT_3D('',#226,#227,#228);
#230=CIRCLE('',#229,4.250000000000000);
#231=EDGE_CURVE('',#176,#186,#230,.T.);
#232=ORIENTED_EDGE('',*,*,#231,.F.);
#233=EDGE_LOOP('',(#217,#224,#225,#232));
#234=FACE_OUTER_BOUND('',#233,.T.);
#235=ADVANCED_FACE('',(#234),#216,.F.);
#236=CARTESIAN_POINT('',(210.181897640787580,182.531126281253960,0.0));
#237=DIRECTION('',(0.0,0.0,1.0));
#238=DIRECTION('',(-1.0,0.0,0.0));
#239=AXIS2_PLACEMENT_3D('',#236,#237,#238);
#240=CYLINDRICAL_SURFACE('',#239,4.250000000000000);
#241=ORIENTED_EDGE('',*,*,#141,.T.);
#242=CARTESIAN_POINT('',(210.181897640787580,182.531126281253960,0.0));
#243=DIRECTION('',(0.0,0.0,1.0));
#244=DIRECTION('',(-1.0,0.0,0.0));
#245=AXIS2_PLACEMENT_3D('',#242,#243,#244);
#246=CIRCLE('',#245,4.250000000000000);
#247=EDGE_CURVE('',#153,#136,#246,.T.);
#248=ORIENTED_EDGE('',*,*,#247,.F.);
#249=ORIENTED_EDGE('',*,*,#158,.T.);
#250=CARTESIAN_POINT('',(210.181897640787580,182.531126281253960,10.0));
#251=DIRECTION('',(0.0,0.0,-1.0));
#252=DIRECTION('',(-1.0,0.0,0.0));
#253=AXIS2_PLACEMENT_3D('',#250,#251,#252);
#254=CIRCLE('',#253,4.250000000000000);
#255=EDGE_CURVE('',#134,#144,#254,.T.);
#256=ORIENTED_EDGE('',*,*,#255,.F.);
#257=EDGE_LOOP('',(#241,#248,#249,#256));
#258=FACE_OUTER_BOUND('',#257,.T.);
#259=ADVANCED_FACE('',(#258),#240,.F.);
#260=CARTESIAN_POINT('',(159.181897640787580,233.531126281254020,0.0));
#261=DIRECTION('',(0.0,0.0,1.0));
#262=DIRECTION('',(-1.0,0.0,0.0));
#263=AXIS2_PLACEMENT_3D('',#260,#261,#262);
#264=CYLINDRICAL_SURFACE('',#263,4.250000000000000);
#265=ORIENTED_EDGE('',*,*,#99,.T.);
#266=CARTESIAN_POINT('',(159.181897640787580,233.531126281254020,0.0));
#267=DIRECTION('',(0.0,0.0,1.0));
#268=DIRECTION('',(-1.0,0.0,0.0));
#269=AXIS2_PLACEMENT_3D('',#266,#267,#268);
#270=CIRCLE('',#269,4.250000000000000);
#271=EDGE_CURVE('',#111,#94,#270,.T.);
#272=ORIENTED_EDGE('',*,*,#271,.F.);
#273=ORIENTED_EDGE('',*,*,#116,.T.);
#274=CARTESIAN_POINT('',(159.181897640787580,233.531126281254020,10.0));
#275=DIRECTION('',(0.0,0.0,-1.0));
#276=DIRECTION('',(-1.0,0.0,0.0));
#277=AXIS2_PLACEMENT_3D('',#274,#275,#276);
#278=CIRCLE('',#277,4.250000000000000);
#279=EDGE_CURVE('',#92,#102,#278,.T.);
#280=ORIENTED_EDGE('',*,*,#279,.F.);
#281=EDGE_LOOP('',(#265,#272,#273,#280));
#282=FACE_OUTER_BOUND('',#281,.T.);
#283=ADVANCED_FACE('',(#282),#264,.F.);
#284=CARTESIAN_POINT('',(210.181897640787580,233.531126281254020,0.0));
#285=DIRECTION('',(0.0,0.0,1.0));
#286=DIRECTION('',(-1.0,0.0,0.0));
#287=AXIS2_PLACEMENT_3D('',#284,#285,#286);
#288=CYLINDRICAL_SURFACE('',#287,4.250000000000000);
#289=ORIENTED_EDGE('',*,*,#57,.T.);
#290=CARTESIAN_POINT('',(210.181897640787580,233.531126281254020,0.0));
#291=DIRECTION('',(0.0,0.0,1.0));
#292=DIRECTION('',(-1.0,0.0,0.0));
#293=AXIS2_PLACEMENT_3D('',#290,#291,#292);
#294=CIRCLE('',#293,4.250000000000000);
#295=EDGE_CURVE('',#69,#52,#294,.T.);
#296=ORIENTED_EDGE('',*,*,#295,.F.);
#297=ORIENTED_EDGE('',*,*,#74,.T.);
#298=CARTESIAN_POINT('',(210.181897640787580,233.531126281254020,10.0));
#299=DIRECTION('',(0.0,0.0,-1.0));
#300=DIRECTION('',(-1.0,0.0,0.0));
#301=AXIS2_PLACEMENT_3D('',#298,#299,#300);
#302=CIRCLE('',#301,4.250000000000000);
#303=EDGE_CURVE('',#50,#60,#302,.T.);
#304=ORIENTED_EDGE('',*,*,#303,.F.);
#305=EDGE_LOOP('',(#289,#296,#297,#304));
#306=FACE_OUTER_BOUND('',#305,.T.);
#307=ADVANCED_FACE('',(#306),#288,.F.);
#308=CARTESIAN_POINT('',(154.681897640787580,243.031126281254020,0.0));
#309=DIRECTION('',(0.0,1.0,0.0));
#310=DIRECTION('',(0.0,0.0,1.0));
#311=AXIS2_PLACEMENT_3D('',#308,#309,#310);
#312=PLANE('',#311);
#313=CARTESIAN_POINT('',(154.681897640787580,243.031126281254020,10.0));
#314=VERTEX_POINT('',#313);
#315=CARTESIAN_POINT('',(214.681897640787580,243.031126281254020,10.0));
#316=VERTEX_POINT('',#315);
#317=CARTESIAN_POINT('',(154.681897640787580,243.031126281254020,10.0));
#318=DIRECTION('',(1.0,0.0,0.0));
#319=VECTOR('',#318,60.0);
#320=LINE('',#317,#319);
#321=EDGE_CURVE('',#314,#316,#320,.T.);
#322=ORIENTED_EDGE('',*,*,#321,.T.);
#323=CARTESIAN_POINT('',(214.681897640787580,243.031126281254020,0.0));
#324=VERTEX_POINT('',#323);
#325=CARTESIAN_POINT('',(214.681897640787580,243.031126281254020,0.0));
#326=DIRECTION('',(0.0,0.0,1.0));
#327=VECTOR('',#326,10.0);
#328=LINE('',#325,#327);
#329=EDGE_CURVE('',#324,#316,#328,.T.);
#330=ORIENTED_EDGE('',*,*,#329,.F.);
#331=CARTESIAN_POINT('',(154.681897640787580,243.031126281254020,0.0));
#332=VERTEX_POINT('',#331);
#333=CARTESIAN_POINT('',(154.681897640787580,243.031126281254020,0.0));
#334=DIRECTION('',(1.0,0.0,0.0));
#335=VECTOR('',#334,60.0);
#336=LINE('',#333,#335);
#337=EDGE_CURVE('',#332,#324,#336,.T.);
#338=ORIENTED_EDGE('',*,*,#337,.F.);
#339=CARTESIAN_POINT('',(154.681897640787580,243.031126281254020,0.0));
#340=DIRECTION('',(0.0,0.0,1.0));
#341=VECTOR('',#340,10.0);
#342=LINE('',#339,#341);
#343=EDGE_CURVE('',#332,#314,#342,.T.);
#344=ORIENTED_EDGE('',*,*,#343,.T.);
#345=EDGE_LOOP('',(#322,#330,#338,#344));
#346=FACE_OUTER_BOUND('',#345,.T.);
#347=ADVANCED_FACE('',(#346),#312,.T.);
#348=CARTESIAN_POINT('',(214.681897640787580,238.031126281253930,0.0));
#349=DIRECTION('',(0.0,0.0,1.0));
#350=DIRECTION('',(-1.0,0.0,0.0));
#351=AXIS2_PLACEMENT_3D('',#348,#349,#350);
#352=CYLINDRICAL_SURFACE('',#351,5.0);
#353=CARTESIAN_POINT('',(219.681897640787580,238.031126281253930,10.0));
#354=VERTEX_POINT('',#353);
#355=CARTESIAN_POINT('',(214.681897640787580,238.031126281253930,10.0));
#356=DIRECTION('',(0.0,0.0,-1.0));
#357=DIRECTION('',(-1.0,0.0,0.0));
#358=AXIS2_PLACEMENT_3D('',#355,#356,#357);
#359=CIRCLE('',#358,5.0);
#360=EDGE_CURVE('',#316,#354,#359,.T.);
#361=ORIENTED_EDGE('',*,*,#360,.T.);
#362=CARTESIAN_POINT('',(219.681897640787580,238.031126281253930,0.0));
#363=VERTEX_POINT('',#362);
#364=CARTESIAN_POINT('',(219.681897640787580,238.031126281253930,0.0));
#365=DIRECTION('',(0.0,0.0,1.0));
#366=VECTOR('',#365,10.0);
#367=LINE('',#364,#366);
#368=EDGE_CURVE('',#363,#354,#367,.T.);
#369=ORIENTED_EDGE('',*,*,#368,.F.);
#370=CARTESIAN_POINT('',(214.681897640787580,238.031126281253930,0.0));
#371=DIRECTION('',(0.0,0.0,-1.0));
#372=DIRECTION('',(-1.0,0.0,0.0));
#373=AXIS2_PLACEMENT_3D('',#370,#371,#372);
#374=CIRCLE('',#373,5.0);
#375=EDGE_CURVE('',#324,#363,#374,.T.);
#376=ORIENTED_EDGE('',*,*,#375,.F.);
#377=ORIENTED_EDGE('',*,*,#329,.T.);
#378=EDGE_LOOP('',(#361,#369,#376,#377));
#379=FACE_OUTER_BOUND('',#378,.T.);
#380=ADVANCED_FACE('',(#379),#352,.T.);
#381=CARTESIAN_POINT('',(219.681897640787580,238.031126281253930,0.0));
#382=DIRECTION('',(1.0,0.0,0.0));
#383=DIRECTION('',(0.0,0.0,-1.0));
#384=AXIS2_PLACEMENT_3D('',#381,#382,#383);
#385=PLANE('',#384);
#386=CARTESIAN_POINT('',(219.681897640787580,178.031126281254020,10.0));
#387=VERTEX_POINT('',#386);
#388=CARTESIAN_POINT('',(219.681897640787580,238.031126281253930,10.0));
#389=DIRECTION('',(0.0,-1.0,0.0));
#390=VECTOR('',#389,59.999999999999915);
#391=LINE('',#388,#390);
#392=EDGE_CURVE('',#354,#387,#391,.T.);
#393=ORIENTED_EDGE('',*,*,#392,.T.);
#394=CARTESIAN_POINT('',(219.681897640787580,178.031126281254020,0.0));
#395=VERTEX_POINT('',#394);
#396=CARTESIAN_POINT('',(219.681897640787580,178.031126281254020,0.0));
#397=DIRECTION('',(0.0,0.0,1.0));
#398=VECTOR('',#397,10.0);
#399=LINE('',#396,#398);
#400=EDGE_CURVE('',#395,#387,#399,.T.);
#401=ORIENTED_EDGE('',*,*,#400,.F.);
#402=CARTESIAN_POINT('',(219.681897640787580,238.031126281253930,0.0));
#403=DIRECTION('',(0.0,-1.0,0.0));
#404=VECTOR('',#403,59.999999999999915);
#405=LINE('',#402,#404);
#406=EDGE_CURVE('',#363,#395,#405,.T.);
#407=ORIENTED_EDGE('',*,*,#406,.F.);
#408=ORIENTED_EDGE('',*,*,#368,.T.);
#409=EDGE_LOOP('',(#393,#401,#407,#408));
#410=FACE_OUTER_BOUND('',#409,.T.);
#411=ADVANCED_FACE('',(#410),#385,.T.);
#412=CARTESIAN_POINT('',(214.681897640787610,178.031126281254020,0.0));
#413=DIRECTION('',(0.0,0.0,1.0));
#414=DIRECTION('',(0.0,1.0,0.0));
#415=AXIS2_PLACEMENT_3D('',#412,#413,#414);
#416=CYLINDRICAL_SURFACE('',#415,5.0);
#417=CARTESIAN_POINT('',(214.681897640787580,173.031126281254020,10.0));
#418=VERTEX_POINT('',#417);
#419=CARTESIAN_POINT('',(214.681897640787610,178.031126281254020,10.0));
#420=DIRECTION('',(0.0,0.0,-1.0));
#421=DIRECTION('',(0.0,1.0,0.0));
#422=AXIS2_PLACEMENT_3D('',#419,#420,#421);
#423=CIRCLE('',#422,5.0);
#424=EDGE_CURVE('',#387,#418,#423,.T.);
#425=ORIENTED_EDGE('',*,*,#424,.T.);
#426=CARTESIAN_POINT('',(214.681897640787580,173.031126281254020,0.0));
#427=VERTEX_POINT('',#426);
#428=CARTESIAN_POINT('',(214.681897640787580,173.031126281254020,0.0));
#429=DIRECTION('',(0.0,0.0,1.0));
#430=VECTOR('',#429,10.0);
#431=LINE('',#428,#430);
#432=EDGE_CURVE('',#427,#418,#431,.T.);
#433=ORIENTED_EDGE('',*,*,#432,.F.);
#434=CARTESIAN_POINT('',(214.681897640787610,178.031126281254020,0.0));
#435=DIRECTION('',(0.0,0.0,-1.0));
#436=DIRECTION('',(0.0,1.0,0.0));
#437=AXIS2_PLACEMENT_3D('',#434,#435,#436);
#438=CIRCLE('',#437,5.0);
#439=EDGE_CURVE('',#395,#427,#438,.T.);
#440=ORIENTED_EDGE('',*,*,#439,.F.);
#441=ORIENTED_EDGE('',*,*,#400,.T.);
#442=EDGE_LOOP('',(#425,#433,#440,#441));
#443=FACE_OUTER_BOUND('',#442,.T.);
#444=ADVANCED_FACE('',(#443),#416,.T.);
#445=CARTESIAN_POINT('',(214.681897640787580,173.031126281254020,0.0));
#446=DIRECTION('',(0.0,-1.0,0.0));
#447=DIRECTION('',(0.0,0.0,-1.0));
#448=AXIS2_PLACEMENT_3D('',#445,#446,#447);
#449=PLANE('',#448);
#450=CARTESIAN_POINT('',(154.681897640787580,173.031126281254020,10.0));
#451=VERTEX_POINT('',#450);
#452=CARTESIAN_POINT('',(214.681897640787580,173.031126281254020,10.0));
#453=DIRECTION('',(-1.0,0.0,0.0));
#454=VECTOR('',#453,60.0);
#455=LINE('',#452,#454);
#456=EDGE_CURVE('',#418,#451,#455,.T.);
#457=ORIENTED_EDGE('',*,*,#456,.T.);
#458=CARTESIAN_POINT('',(154.681897640787580,173.031126281254020,0.0));
#459=VERTEX_POINT('',#458);
#460=CARTESIAN_POINT('',(154.681897640787580,173.031126281254020,0.0));
#461=DIRECTION('',(0.0,0.0,1.0));
#462=VECTOR('',#461,10.0);
#463=LINE('',#460,#462);
#464=EDGE_CURVE('',#459,#451,#463,.T.);
#465=ORIENTED_EDGE('',*,*,#464,.F.);
#466=CARTESIAN_POINT('',(214.681897640787580,173.031126281254020,0.0));
#467=DIRECTION('',(-1.0,0.0,0.0));
#468=VECTOR('',#467,60.0);
#469=LINE('',#466,#468);
#470=EDGE_CURVE('',#427,#459,#469,.T.);
#471=ORIENTED_EDGE('',*,*,#470,.F.);
#472=ORIENTED_EDGE('',*,*,#432,.T.);
#473=EDGE_LOOP('',(#457,#465,#471,#472));
#474=FACE_OUTER_BOUND('',#473,.T.);
#475=ADVANCED_FACE('',(#474),#449,.T.);
#476=CARTESIAN_POINT('',(154.681897640787550,178.031126281254020,0.0));
#477=DIRECTION('',(0.0,0.0,1.0));
#478=DIRECTION('',(1.0,0.0,0.0));
#479=AXIS2_PLACEMENT_3D('',#476,#477,#478);
#480=CYLINDRICAL_SURFACE('',#479,5.0);
#481=CARTESIAN_POINT('',(149.681897640787580,178.031126281254020,10.0));
#482=VERTEX_POINT('',#481);
#483=CARTESIAN_POINT('',(154.681897640787550,178.031126281254020,10.0));
#484=DIRECTION('',(0.0,0.0,-1.0));
#485=DIRECTION('',(1.0,0.0,0.0));
#486=AXIS2_PLACEMENT_3D('',#483,#484,#485);
#487=CIRCLE('',#486,5.0);
#488=EDGE_CURVE('',#451,#482,#487,.T.);
#489=ORIENTED_EDGE('',*,*,#488,.T.);
#490=CARTESIAN_POINT('',(149.681897640787580,178.031126281254020,0.0));
#491=VERTEX_POINT('',#490);
#492=CARTESIAN_POINT('',(149.681897640787580,178.031126281254020,0.0));
#493=DIRECTION('',(0.0,0.0,1.0));
#494=VECTOR('',#493,10.0);
#495=LINE('',#492,#494);
#496=EDGE_CURVE('',#491,#482,#495,.T.);
#497=ORIENTED_EDGE('',*,*,#496,.F.);
#498=CARTESIAN_POINT('',(154.681897640787550,178.031126281254020,0.0));
#499=DIRECTION('',(0.0,0.0,-1.0));
#500=DIRECTION('',(1.0,0.0,0.0));
#501=AXIS2_PLACEMENT_3D('',#498,#499,#500);
#502=CIRCLE('',#501,5.0);
#503=EDGE_CURVE('',#459,#491,#502,.T.);
#504=ORIENTED_EDGE('',*,*,#503,.F.);
#505=ORIENTED_EDGE('',*,*,#464,.T.);
#506=EDGE_LOOP('',(#489,#497,#504,#505));
#507=FACE_OUTER_BOUND('',#506,.T.);
#508=ADVANCED_FACE('',(#507),#480,.T.);
#509=CARTESIAN_POINT('',(149.681897640787580,178.031126281254020,0.0));
#510=DIRECTION('',(-1.0,0.0,0.0));
#511=DIRECTION('',(0.0,0.0,1.0));
#512=AXIS2_PLACEMENT_3D('',#509,#510,#511);
#513=PLANE('',#512);
#514=CARTESIAN_POINT('',(149.681897640787580,238.031126281254020,10.0));
#515=VERTEX_POINT('',#514);
#516=CARTESIAN_POINT('',(149.681897640787580,178.031126281254020,10.0));
#517=DIRECTION('',(0.0,1.0,0.0));
#518=VECTOR('',#517,60.0);
#519=LINE('',#516,#518);
#520=EDGE_CURVE('',#482,#515,#519,.T.);
#521=ORIENTED_EDGE('',*,*,#520,.T.);
#522=CARTESIAN_POINT('',(149.681897640787580,238.031126281254020,0.0));
#523=VERTEX_POINT('',#522);
#524=CARTESIAN_POINT('',(149.681897640787580,238.031126281254020,0.0));
#525=DIRECTION('',(0.0,0.0,1.0));
#526=VECTOR('',#525,10.0);
#527=LINE('',#524,#526);
#528=EDGE_CURVE('',#523,#515,#527,.T.);
#529=ORIENTED_EDGE('',*,*,#528,.F.);
#530=CARTESIAN_POINT('',(149.681897640787580,178.031126281254020,0.0));
#531=DIRECTION('',(0.0,1.0,0.0));
#532=VECTOR('',#531,60.0);
#533=LINE('',#530,#532);
#534=EDGE_CURVE('',#491,#523,#533,.T.);
#535=ORIENTED_EDGE('',*,*,#534,.F.);
#536=ORIENTED_EDGE('',*,*,#496,.T.);
#537=EDGE_LOOP('',(#521,#529,#535,#536));
#538=FACE_OUTER_BOUND('',#537,.T.);
#539=ADVANCED_FACE('',(#538),#513,.T.);
#540=CARTESIAN_POINT('',(154.681897640787580,238.031126281254020,0.0));
#541=DIRECTION('',(0.0,0.0,1.0));
#542=DIRECTION('',(0.0,-1.0,0.0));
#543=AXIS2_PLACEMENT_3D('',#540,#541,#542);
#544=CYLINDRICAL_SURFACE('',#543,5.0);
#545=CARTESIAN_POINT('',(154.681897640787580,238.031126281254020,10.0));
#546=DIRECTION('',(0.0,0.0,-1.0));
#547=DIRECTION('',(0.0,-1.0,0.0));
#548=AXIS2_PLACEMENT_3D('',#545,#546,#547);
#549=CIRCLE('',#548,5.0);
#550=EDGE_CURVE('',#515,#314,#549,.T.);
#551=ORIENTED_EDGE('',*,*,#550,.T.);
#552=ORIENTED_EDGE('',*,*,#343,.F.);
#553=CARTESIAN_POINT('',(154.681897640787580,238.031126281254020,0.0));
#554=DIRECTION('',(0.0,0.0,-1.0));
#555=DIRECTION('',(0.0,-1.0,0.0));
#556=AXIS2_PLACEMENT_3D('',#553,#554,#555);
#557=CIRCLE('',#556,5.0);
#558=EDGE_CURVE('',#523,#332,#557,.T.);
#559=ORIENTED_EDGE('',*,*,#558,.F.);
#560=ORIENTED_EDGE('',*,*,#528,.T.);
#561=EDGE_LOOP('',(#551,#552,#559,#560));
#562=FACE_OUTER_BOUND('',#561,.T.);
#563=ADVANCED_FACE('',(#562),#544,.T.);
#564=CARTESIAN_POINT('',(184.681897640787580,208.031126281254020,10.0));
#565=DIRECTION('',(0.0,0.0,1.0));
#566=DIRECTION('',(1.0,0.0,0.0));
#567=AXIS2_PLACEMENT_3D('',#564,#565,#566);
#568=PLANE('',#567);
#569=ORIENTED_EDGE('',*,*,#321,.F.);
#570=ORIENTED_EDGE('',*,*,#550,.F.);
#571=ORIENTED_EDGE('',*,*,#520,.F.);
#572=ORIENTED_EDGE('',*,*,#488,.F.);
#573=ORIENTED_EDGE('',*,*,#456,.F.);
#574=ORIENTED_EDGE('',*,*,#424,.F.);
#575=ORIENTED_EDGE('',*,*,#392,.F.);
#576=ORIENTED_EDGE('',*,*,#360,.F.);
#577=EDGE_LOOP('',(#569,#570,#571,#572,#573,#574,#575,#576));
#578=FACE_OUTER_BOUND('',#577,.T.);
#579=ORIENTED_EDGE('',*,*,#192,.T.);
#580=ORIENTED_EDGE('',*,*,#231,.T.);
#581=EDGE_LOOP('',(#579,#580));
#582=FACE_BOUND('',#581,.T.);
#583=ORIENTED_EDGE('',*,*,#150,.T.);
#584=ORIENTED_EDGE('',*,*,#255,.T.);
#585=EDGE_LOOP('',(#583,#584));
#586=FACE_BOUND('',#585,.T.);
#587=ORIENTED_EDGE('',*,*,#108,.T.);
#588=ORIENTED_EDGE('',*,*,#279,.T.);
#589=EDGE_LOOP('',(#587,#588));
#590=FACE_BOUND('',#589,.T.);
#591=ORIENTED_EDGE('',*,*,#66,.T.);
#592=ORIENTED_EDGE('',*,*,#303,.T.);
#593=EDGE_LOOP('',(#591,#592));
#594=FACE_BOUND('',#593,.T.);
#595=ADVANCED_FACE('',(#578,#582,#586,#590,#594),#568,.T.);
#596=CARTESIAN_POINT('',(184.681897640787580,208.031126281254050,0.0));
#597=DIRECTION('',(0.0,0.0,1.0));
#598=DIRECTION('',(1.0,0.0,0.0));
#599=AXIS2_PLACEMENT_3D('',#596,#597,#598);
#600=PLANE('',#599);
#601=ORIENTED_EDGE('',*,*,#558,.T.);
#602=ORIENTED_EDGE('',*,*,#337,.T.);
#603=ORIENTED_EDGE('',*,*,#375,.T.);
#604=ORIENTED_EDGE('',*,*,#406,.T.);
#605=ORIENTED_EDGE('',*,*,#439,.T.);
#606=ORIENTED_EDGE('',*,*,#470,.T.);
#607=ORIENTED_EDGE('',*,*,#503,.T.);
#608=ORIENTED_EDGE('',*,*,#534,.T.);
#609=EDGE_LOOP('',(#601,#602,#603,#604,#605,#606,#607,#608));
#610=FACE_OUTER_BOUND('',#609,.T.);
#611=ORIENTED_EDGE('',*,*,#223,.T.);
#612=ORIENTED_EDGE('',*,*,#207,.T.);
#613=EDGE_LOOP('',(#611,#612));
#614=FACE_BOUND('',#613,.T.);
#615=ORIENTED_EDGE('',*,*,#247,.T.);
#616=ORIENTED_EDGE('',*,*,#165,.T.);
#617=EDGE_LOOP('',(#615,#616));
#618=FACE_BOUND('',#617,.T.);
#619=ORIENTED_EDGE('',*,*,#271,.T.);
#620=ORIENTED_EDGE('',*,*,#123,.T.);
#621=EDGE_LOOP('',(#619,#620));
#622=FACE_BOUND('',#621,.T.);
#623=ORIENTED_EDGE('',*,*,#295,.T.);
#624=ORIENTED_EDGE('',*,*,#81,.T.);
#625=EDGE_LOOP('',(#623,#624));
#626=FACE_BOUND('',#625,.T.);
#627=ADVANCED_FACE('',(#610,#614,#618,#622,#626),#600,.F.);
#628=CLOSED_SHELL('',(#85,#127,#169,#211,#235,#259,#283,#307,#347,#380,#411,#444,#475,#508,#539,#563,#595,#627));
#629=MANIFOLD_SOLID_BREP('',#628);
#630=COLOUR_RGB('Default',0.752941191196442,0.752941191196442,0.752941191196442);
#631=FILL_AREA_STYLE_COLOUR('Default',#630);
#632=FILL_AREA_STYLE('Default',(#631));
#633=SURFACE_STYLE_FILL_AREA(#632);
#634=SURFACE_SIDE_STYLE('Default',(#633));
#635=SURFACE_STYLE_USAGE(.BOTH.,#634);
#636=PRESENTATION_STYLE_ASSIGNMENT((#635));
#637=STYLED_ITEM('',(#636),#629);
#638=MECHANICAL_DESIGN_GEOMETRIC_PRESENTATION_REPRESENTATION('',(#637),#36);
#639=ADVANCED_BREP_SHAPE_REPRESENTATION('ABSR',(#629),#36);
#640=SHAPE_REPRESENTATION_RELATIONSHIP('SRR','None',#639,#41);
ENDSEC;
END-ISO-10303-21;
