ISO-10303-21;
HEADER;
/* Generated by software containing ST-Developer
 * from STEP Tools, Inc. (www.steptools.com) 
 */

FILE_DESCRIPTION(
/* description */ (''),
/* implementation_level */ '2;1');

FILE_NAME(
/* name */ 'C:\\TEMP\\NP5.stp',
/* time_stamp */ '2021-10-18T12:48:11+01:00',
/* author */ ('Sandfield Engineering'),
/* organization */ ('Sandfield Engineering'),
/* preprocessor_version */ 'ST-DEVELOPER v18.1',
/* originating_system */ 'Autodesk Inventor 2021',
/* authorisation */ '');

FILE_SCHEMA (('AUTOMOTIVE_DESIGN { 1 0 10303 214 3 1 1 }'));
ENDSEC;

DATA;
#10=MECHANICAL_DESIGN_GEOMETRIC_PRESENTATION_REPRESENTATION('',(#13),#277);
#11=SHAPE_REPRESENTATION_RELATIONSHIP('SRR','None',#284,#12);
#12=ADVANCED_BREP_SHAPE_REPRESENTATION('',(#14),#276);
#13=STYLED_ITEM('',(#293),#14);
#14=MANIFOLD_SOLID_BREP('Solid1',#141);
#15=FACE_BOUND('',#36,.T.);
#16=FACE_BOUND('',#39,.T.);
#17=CONICAL_SURFACE('',#170,5.125,0.512389460310738);
#18=PLANE('',#166);
#19=PLANE('',#167);
#20=PLANE('',#176);
#21=PLANE('',#182);
#22=FACE_OUTER_BOUND('',#30,.T.);
#23=FACE_OUTER_BOUND('',#31,.T.);
#24=FACE_OUTER_BOUND('',#32,.T.);
#25=FACE_OUTER_BOUND('',#33,.T.);
#26=FACE_OUTER_BOUND('',#34,.T.);
#27=FACE_OUTER_BOUND('',#35,.T.);
#28=FACE_OUTER_BOUND('',#37,.T.);
#29=FACE_OUTER_BOUND('',#38,.T.);
#30=EDGE_LOOP('',(#94,#95,#96,#97,#98,#99));
#31=EDGE_LOOP('',(#100,#101));
#32=EDGE_LOOP('',(#102,#103));
#33=EDGE_LOOP('',(#104,#105,#106,#107,#108,#109));
#34=EDGE_LOOP('',(#110,#111,#112,#113,#114,#115));
#35=EDGE_LOOP('',(#116,#117));
#36=EDGE_LOOP('',(#118,#119));
#37=EDGE_LOOP('',(#120,#121,#122,#123,#124,#125));
#38=EDGE_LOOP('',(#126,#127));
#39=EDGE_LOOP('',(#128,#129));
#40=LINE('',#239,#44);
#41=LINE('',#255,#45);
#42=LINE('',#261,#46);
#43=LINE('',#269,#47);
#44=VECTOR('',#189,4.5);
#45=VECTOR('',#210,5.125);
#46=VECTOR('',#217,6.25);
#47=VECTOR('',#226,3.25);
#48=CIRCLE('',#162,4.5);
#49=CIRCLE('',#163,4.5);
#50=CIRCLE('',#164,4.5);
#51=CIRCLE('',#165,4.5);
#52=CIRCLE('',#168,4.);
#53=CIRCLE('',#169,4.);
#54=CIRCLE('',#171,6.25);
#55=CIRCLE('',#172,6.25);
#56=CIRCLE('',#174,6.25);
#57=CIRCLE('',#175,6.25);
#58=CIRCLE('',#177,3.25);
#59=CIRCLE('',#178,3.25);
#60=CIRCLE('',#180,3.25);
#61=CIRCLE('',#181,3.25);
#62=VERTEX_POINT('',#235);
#63=VERTEX_POINT('',#236);
#64=VERTEX_POINT('',#238);
#65=VERTEX_POINT('',#240);
#66=VERTEX_POINT('',#246);
#67=VERTEX_POINT('',#247);
#68=VERTEX_POINT('',#251);
#69=VERTEX_POINT('',#252);
#70=VERTEX_POINT('',#257);
#71=VERTEX_POINT('',#258);
#72=VERTEX_POINT('',#263);
#73=VERTEX_POINT('',#264);
#74=VERTEX_POINT('',#268);
#75=VERTEX_POINT('',#270);
#76=EDGE_CURVE('',#62,#63,#48,.T.);
#77=EDGE_CURVE('',#63,#64,#40,.T.);
#78=EDGE_CURVE('',#65,#64,#49,.T.);
#79=EDGE_CURVE('',#64,#65,#50,.T.);
#80=EDGE_CURVE('',#63,#62,#51,.T.);
#81=EDGE_CURVE('',#66,#67,#52,.T.);
#82=EDGE_CURVE('',#67,#66,#53,.T.);
#83=EDGE_CURVE('',#68,#69,#54,.T.);
#84=EDGE_CURVE('',#69,#68,#55,.T.);
#85=EDGE_CURVE('',#69,#67,#41,.T.);
#86=EDGE_CURVE('',#70,#71,#56,.T.);
#87=EDGE_CURVE('',#71,#70,#57,.T.);
#88=EDGE_CURVE('',#71,#69,#42,.T.);
#89=EDGE_CURVE('',#72,#73,#58,.T.);
#90=EDGE_CURVE('',#73,#72,#59,.T.);
#91=EDGE_CURVE('',#73,#74,#43,.T.);
#92=EDGE_CURVE('',#75,#74,#60,.T.);
#93=EDGE_CURVE('',#74,#75,#61,.T.);
#94=ORIENTED_EDGE('',*,*,#76,.T.);
#95=ORIENTED_EDGE('',*,*,#77,.T.);
#96=ORIENTED_EDGE('',*,*,#78,.F.);
#97=ORIENTED_EDGE('',*,*,#79,.F.);
#98=ORIENTED_EDGE('',*,*,#77,.F.);
#99=ORIENTED_EDGE('',*,*,#80,.T.);
#100=ORIENTED_EDGE('',*,*,#78,.T.);
#101=ORIENTED_EDGE('',*,*,#79,.T.);
#102=ORIENTED_EDGE('',*,*,#81,.F.);
#103=ORIENTED_EDGE('',*,*,#82,.F.);
#104=ORIENTED_EDGE('',*,*,#83,.F.);
#105=ORIENTED_EDGE('',*,*,#84,.F.);
#106=ORIENTED_EDGE('',*,*,#85,.T.);
#107=ORIENTED_EDGE('',*,*,#82,.T.);
#108=ORIENTED_EDGE('',*,*,#81,.T.);
#109=ORIENTED_EDGE('',*,*,#85,.F.);
#110=ORIENTED_EDGE('',*,*,#86,.F.);
#111=ORIENTED_EDGE('',*,*,#87,.F.);
#112=ORIENTED_EDGE('',*,*,#88,.T.);
#113=ORIENTED_EDGE('',*,*,#84,.T.);
#114=ORIENTED_EDGE('',*,*,#83,.T.);
#115=ORIENTED_EDGE('',*,*,#88,.F.);
#116=ORIENTED_EDGE('',*,*,#86,.T.);
#117=ORIENTED_EDGE('',*,*,#87,.T.);
#118=ORIENTED_EDGE('',*,*,#89,.F.);
#119=ORIENTED_EDGE('',*,*,#90,.F.);
#120=ORIENTED_EDGE('',*,*,#89,.T.);
#121=ORIENTED_EDGE('',*,*,#91,.T.);
#122=ORIENTED_EDGE('',*,*,#92,.F.);
#123=ORIENTED_EDGE('',*,*,#93,.F.);
#124=ORIENTED_EDGE('',*,*,#91,.F.);
#125=ORIENTED_EDGE('',*,*,#90,.T.);
#126=ORIENTED_EDGE('',*,*,#76,.F.);
#127=ORIENTED_EDGE('',*,*,#80,.F.);
#128=ORIENTED_EDGE('',*,*,#92,.T.);
#129=ORIENTED_EDGE('',*,*,#93,.T.);
#130=CYLINDRICAL_SURFACE('',#161,4.5);
#131=CYLINDRICAL_SURFACE('',#173,6.25);
#132=CYLINDRICAL_SURFACE('',#179,3.25);
#133=ADVANCED_FACE('',(#22),#130,.F.);
#134=ADVANCED_FACE('',(#23),#18,.T.);
#135=ADVANCED_FACE('',(#24),#19,.T.);
#136=ADVANCED_FACE('',(#25),#17,.T.);
#137=ADVANCED_FACE('',(#26),#131,.T.);
#138=ADVANCED_FACE('',(#27,#15),#20,.T.);
#139=ADVANCED_FACE('',(#28),#132,.F.);
#140=ADVANCED_FACE('',(#29,#16),#21,.T.);
#141=CLOSED_SHELL('',(#133,#134,#135,#136,#137,#138,#139,#140));
#142=DERIVED_UNIT_ELEMENT(#144,1.);
#143=DERIVED_UNIT_ELEMENT(#279,3.);
#144=(
MASS_UNIT()
NAMED_UNIT(*)
SI_UNIT($,.GRAM.)
);
#145=DERIVED_UNIT((#142,#143));
#146=MEASURE_REPRESENTATION_ITEM('density measure',
POSITIVE_RATIO_MEASURE(0.93),#145);
#147=PROPERTY_DEFINITION_REPRESENTATION(#152,#149);
#148=PROPERTY_DEFINITION_REPRESENTATION(#153,#150);
#149=REPRESENTATION('material name',(#151),#276);
#150=REPRESENTATION('density',(#146),#276);
#151=DESCRIPTIVE_REPRESENTATION_ITEM('Rubber','Rubber');
#152=PROPERTY_DEFINITION('material property','material name',#286);
#153=PROPERTY_DEFINITION('material property','density of part',#286);
#154=DATE_TIME_ROLE('creation_date');
#155=APPLIED_DATE_AND_TIME_ASSIGNMENT(#156,#154,(#286));
#156=DATE_AND_TIME(#157,#158);
#157=CALENDAR_DATE(2021,18,10);
#158=LOCAL_TIME(0,0,0.,#159);
#159=COORDINATED_UNIVERSAL_TIME_OFFSET(0,0,.BEHIND.);
#160=AXIS2_PLACEMENT_3D('placement',#233,#183,#184);
#161=AXIS2_PLACEMENT_3D('',#234,#185,#186);
#162=AXIS2_PLACEMENT_3D('',#237,#187,#188);
#163=AXIS2_PLACEMENT_3D('',#241,#190,#191);
#164=AXIS2_PLACEMENT_3D('',#242,#192,#193);
#165=AXIS2_PLACEMENT_3D('',#243,#194,#195);
#166=AXIS2_PLACEMENT_3D('',#244,#196,#197);
#167=AXIS2_PLACEMENT_3D('',#245,#198,#199);
#168=AXIS2_PLACEMENT_3D('',#248,#200,#201);
#169=AXIS2_PLACEMENT_3D('',#249,#202,#203);
#170=AXIS2_PLACEMENT_3D('',#250,#204,#205);
#171=AXIS2_PLACEMENT_3D('',#253,#206,#207);
#172=AXIS2_PLACEMENT_3D('',#254,#208,#209);
#173=AXIS2_PLACEMENT_3D('',#256,#211,#212);
#174=AXIS2_PLACEMENT_3D('',#259,#213,#214);
#175=AXIS2_PLACEMENT_3D('',#260,#215,#216);
#176=AXIS2_PLACEMENT_3D('',#262,#218,#219);
#177=AXIS2_PLACEMENT_3D('',#265,#220,#221);
#178=AXIS2_PLACEMENT_3D('',#266,#222,#223);
#179=AXIS2_PLACEMENT_3D('',#267,#224,#225);
#180=AXIS2_PLACEMENT_3D('',#271,#227,#228);
#181=AXIS2_PLACEMENT_3D('',#272,#229,#230);
#182=AXIS2_PLACEMENT_3D('',#273,#231,#232);
#183=DIRECTION('axis',(0.,0.,1.));
#184=DIRECTION('refdir',(1.,0.,0.));
#185=DIRECTION('center_axis',(0.,1.,0.));
#186=DIRECTION('ref_axis',(-1.,0.,0.));
#187=DIRECTION('center_axis',(0.,1.,0.));
#188=DIRECTION('ref_axis',(1.,0.,0.));
#189=DIRECTION('',(0.,-1.,0.));
#190=DIRECTION('center_axis',(0.,1.,0.));
#191=DIRECTION('ref_axis',(1.,0.,0.));
#192=DIRECTION('center_axis',(0.,1.,0.));
#193=DIRECTION('ref_axis',(1.,0.,0.));
#194=DIRECTION('center_axis',(0.,1.,0.));
#195=DIRECTION('ref_axis',(1.,0.,0.));
#196=DIRECTION('center_axis',(0.,1.,0.));
#197=DIRECTION('ref_axis',(0.,0.,1.));
#198=DIRECTION('center_axis',(0.,-1.,0.));
#199=DIRECTION('ref_axis',(0.,0.,-1.));
#200=DIRECTION('center_axis',(0.,1.,0.));
#201=DIRECTION('ref_axis',(1.,0.,0.));
#202=DIRECTION('center_axis',(0.,1.,0.));
#203=DIRECTION('ref_axis',(1.,0.,0.));
#204=DIRECTION('center_axis',(0.,1.,0.));
#205=DIRECTION('ref_axis',(-1.,0.,0.));
#206=DIRECTION('center_axis',(0.,1.,0.));
#207=DIRECTION('ref_axis',(1.,0.,0.));
#208=DIRECTION('center_axis',(0.,1.,0.));
#209=DIRECTION('ref_axis',(1.,0.,0.));
#210=DIRECTION('',(-0.490261239632559,-0.871575537124549,6.00396857862026E-17));
#211=DIRECTION('center_axis',(0.,1.,0.));
#212=DIRECTION('ref_axis',(-1.,0.,0.));
#213=DIRECTION('center_axis',(0.,1.,0.));
#214=DIRECTION('ref_axis',(1.,0.,0.));
#215=DIRECTION('center_axis',(0.,1.,0.));
#216=DIRECTION('ref_axis',(1.,0.,0.));
#217=DIRECTION('',(0.,-1.,0.));
#218=DIRECTION('center_axis',(0.,1.,0.));
#219=DIRECTION('ref_axis',(0.,0.,1.));
#220=DIRECTION('center_axis',(0.,1.,0.));
#221=DIRECTION('ref_axis',(1.,0.,0.));
#222=DIRECTION('center_axis',(0.,1.,0.));
#223=DIRECTION('ref_axis',(1.,0.,0.));
#224=DIRECTION('center_axis',(0.,1.,0.));
#225=DIRECTION('ref_axis',(-1.,0.,0.));
#226=DIRECTION('',(0.,-1.,0.));
#227=DIRECTION('center_axis',(0.,1.,0.));
#228=DIRECTION('ref_axis',(1.,0.,0.));
#229=DIRECTION('center_axis',(0.,1.,0.));
#230=DIRECTION('ref_axis',(1.,0.,0.));
#231=DIRECTION('center_axis',(0.,-1.,0.));
#232=DIRECTION('ref_axis',(0.,0.,-1.));
#233=CARTESIAN_POINT('',(0.,0.,0.));
#234=CARTESIAN_POINT('Origin',(0.,6.75,0.));
#235=CARTESIAN_POINT('',(-4.5,8.5,0.));
#236=CARTESIAN_POINT('',(4.5,8.5,-5.51091059616309E-16));
#237=CARTESIAN_POINT('Origin',(0.,8.5,0.));
#238=CARTESIAN_POINT('',(4.5,5.,-5.51091059616309E-16));
#239=CARTESIAN_POINT('',(4.5,6.75,-5.51091059616309E-16));
#240=CARTESIAN_POINT('',(-4.5,5.,0.));
#241=CARTESIAN_POINT('Origin',(0.,5.,0.));
#242=CARTESIAN_POINT('Origin',(0.,5.,0.));
#243=CARTESIAN_POINT('Origin',(0.,8.5,0.));
#244=CARTESIAN_POINT('Origin',(8.48217762238717E-33,5.,0.));
#245=CARTESIAN_POINT('Origin',(-4.,0.,0.));
#246=CARTESIAN_POINT('',(-4.,0.,0.));
#247=CARTESIAN_POINT('',(4.,-2.77555756156289E-16,-4.89858719658941E-16));
#248=CARTESIAN_POINT('Origin',(0.,0.,0.));
#249=CARTESIAN_POINT('Origin',(0.,0.,0.));
#250=CARTESIAN_POINT('Origin',(0.,2.,0.));
#251=CARTESIAN_POINT('',(-6.25,4.,0.));
#252=CARTESIAN_POINT('',(6.25,4.,-7.65404249467096E-16));
#253=CARTESIAN_POINT('Origin',(0.,4.,0.));
#254=CARTESIAN_POINT('Origin',(0.,4.,0.));
#255=CARTESIAN_POINT('',(5.125,2.,-6.27631484563018E-16));
#256=CARTESIAN_POINT('Origin',(0.,7.,0.));
#257=CARTESIAN_POINT('',(-6.25,10.,0.));
#258=CARTESIAN_POINT('',(6.25,10.,-7.65404249467096E-16));
#259=CARTESIAN_POINT('Origin',(0.,10.,0.));
#260=CARTESIAN_POINT('Origin',(0.,10.,0.));
#261=CARTESIAN_POINT('',(6.25,7.,-7.65404249467096E-16));
#262=CARTESIAN_POINT('Origin',(-3.25,10.,0.));
#263=CARTESIAN_POINT('',(-3.25,10.,0.));
#264=CARTESIAN_POINT('',(3.25,10.,-3.9801020972289E-16));
#265=CARTESIAN_POINT('Origin',(0.,10.,0.));
#266=CARTESIAN_POINT('Origin',(0.,10.,0.));
#267=CARTESIAN_POINT('Origin',(0.,9.25,0.));
#268=CARTESIAN_POINT('',(3.25,8.5,-3.9801020972289E-16));
#269=CARTESIAN_POINT('',(3.25,9.25,-3.9801020972289E-16));
#270=CARTESIAN_POINT('',(-3.25,8.5,0.));
#271=CARTESIAN_POINT('Origin',(0.,8.5,0.));
#272=CARTESIAN_POINT('Origin',(0.,8.5,0.));
#273=CARTESIAN_POINT('Origin',(-4.5,8.5,0.));
#274=UNCERTAINTY_MEASURE_WITH_UNIT(LENGTH_MEASURE(0.01),#278,
'DISTANCE_ACCURACY_VALUE',
'Maximum model space distance between geometric entities at asserted c
onnectivities');
#275=UNCERTAINTY_MEASURE_WITH_UNIT(LENGTH_MEASURE(0.01),#278,
'DISTANCE_ACCURACY_VALUE',
'Maximum model space distance between geometric entities at asserted c
onnectivities');
#276=(
GEOMETRIC_REPRESENTATION_CONTEXT(3)
GLOBAL_UNCERTAINTY_ASSIGNED_CONTEXT((#274))
GLOBAL_UNIT_ASSIGNED_CONTEXT((#278,#280,#281))
REPRESENTATION_CONTEXT('','3D')
);
#277=(
GEOMETRIC_REPRESENTATION_CONTEXT(3)
GLOBAL_UNCERTAINTY_ASSIGNED_CONTEXT((#275))
GLOBAL_UNIT_ASSIGNED_CONTEXT((#278,#280,#281))
REPRESENTATION_CONTEXT('','3D')
);
#278=(
LENGTH_UNIT()
NAMED_UNIT(*)
SI_UNIT(.MILLI.,.METRE.)
);
#279=(
LENGTH_UNIT()
NAMED_UNIT(*)
SI_UNIT(.CENTI.,.METRE.)
);
#280=(
NAMED_UNIT(*)
PLANE_ANGLE_UNIT()
SI_UNIT($,.RADIAN.)
);
#281=(
NAMED_UNIT(*)
SI_UNIT($,.STERADIAN.)
SOLID_ANGLE_UNIT()
);
#282=SHAPE_DEFINITION_REPRESENTATION(#283,#284);
#283=PRODUCT_DEFINITION_SHAPE('',$,#286);
#284=SHAPE_REPRESENTATION('',(#160),#276);
#285=PRODUCT_DEFINITION_CONTEXT('part definition',#290,'design');
#286=PRODUCT_DEFINITION('NP5','NP5',#287,#285);
#287=PRODUCT_DEFINITION_FORMATION('',$,#292);
#288=PRODUCT_RELATED_PRODUCT_CATEGORY('NP5','NP5',(#292));
#289=APPLICATION_PROTOCOL_DEFINITION('international standard',
'automotive_design',2009,#290);
#290=APPLICATION_CONTEXT(
'Core Data for Automotive Mechanical Design Process');
#291=PRODUCT_CONTEXT('part definition',#290,'mechanical');
#292=PRODUCT('NP5','NP5',$,(#291));
#293=PRESENTATION_STYLE_ASSIGNMENT((#294));
#294=SURFACE_STYLE_USAGE(.BOTH.,#297);
#295=SURFACE_STYLE_RENDERING_WITH_PROPERTIES($,#301,(#296));
#296=SURFACE_STYLE_TRANSPARENT(0.);
#297=SURFACE_SIDE_STYLE('',(#298,#295));
#298=SURFACE_STYLE_FILL_AREA(#299);
#299=FILL_AREA_STYLE('',(#300));
#300=FILL_AREA_STYLE_COLOUR('',#301);
#301=COLOUR_RGB('',0.250980392156863,0.250980392156863,0.250980392156863);
ENDSEC;
END-ISO-10303-21;
