ISO-10303-21;
HEADER;
/* Generated by software containing ST-Developer
 * from STEP Tools, Inc. (www.steptools.com) 
 */

FILE_DESCRIPTION(
/* description */ (''),
/* implementation_level */ '2;1');

FILE_NAME(
/* name */ 'C:\\TEMP\\SMC5-6.stp',
/* time_stamp */ '2021-10-27T12:52:16+01:00',
/* author */ ('Sandfield Engineering'),
/* organization */ ('Sandfield Engineering'),
/* preprocessor_version */ 'ST-DEVELOPER v18.1',
/* originating_system */ 'Autodesk Inventor 2021',
/* authorisation */ '');

FILE_SCHEMA (('AUTOMOTIVE_DESIGN { 1 0 10303 214 3 1 1 }'));
ENDSEC;

DATA;
#10=MECHANICAL_DESIGN_GEOMETRIC_PRESENTATION_REPRESENTATION('',(#13),#459);
#11=SHAPE_REPRESENTATION_RELATIONSHIP('SRR','None',#466,#12);
#12=ADVANCED_BREP_SHAPE_REPRESENTATION('',(#14),#458);
#13=STYLED_ITEM('',(#475),#14);
#14=MANIFOLD_SOLID_BREP('Solid1',#204);
#15=PLANE('',#243);
#16=PLANE('',#251);
#17=(
BOUNDED_SURFACE()
B_SPLINE_SURFACE(2,2,((#360,#361,#362,#363,#364,#365,#366,#367,#368),(#369,
#370,#371,#372,#373,#374,#375,#376,#377),(#378,#379,#380,#381,#382,#383,
#384,#385,#386)),.UNSPECIFIED.,.F.,.T.,.F.)
B_SPLINE_SURFACE_WITH_KNOTS((3,3),(3,2,2,2,3),(5.41961325472115E-17,1.01419700878467),
(-3.14159265358979,-1.5707963267949,0.,1.5707963267949,3.14159265358979),
 .UNSPECIFIED.)
GEOMETRIC_REPRESENTATION_ITEM()
RATIONAL_B_SPLINE_SURFACE(((1.,0.707106781186548,1.,0.707106781186548,1.,
0.707106781186548,1.,0.707106781186548,1.),(0.874157276121536,0.6181225377691,
0.874157276121536,0.6181225377691,0.874157276121536,0.6181225377691,0.874157276121536,
0.6181225377691,0.874157276121536),(1.,0.707106781186548,1.,0.707106781186548,
1.,0.707106781186548,1.,0.707106781186548,1.)))
REPRESENTATION_ITEM('')
SURFACE()
);
#18=(
BOUNDED_SURFACE()
B_SPLINE_SURFACE(2,2,((#420,#421,#422,#423,#424,#425,#426,#427,#428),(#429,
#430,#431,#432,#433,#434,#435,#436,#437),(#438,#439,#440,#441,#442,#443,
#444,#445,#446)),.UNSPECIFIED.,.F.,.T.,.F.)
B_SPLINE_SURFACE_WITH_KNOTS((3,3),(3,2,2,2,3),(-0.643501108793285,0.),(-3.14159265358979,
-1.5707963267949,0.,1.5707963267949,3.14159265358979),.UNSPECIFIED.)
GEOMETRIC_REPRESENTATION_ITEM()
RATIONAL_B_SPLINE_SURFACE(((1.,0.707106781186548,1.,0.707106781186548,1.,
0.707106781186548,1.,0.707106781186548,1.),(0.948683298050512,0.670820393249936,
0.948683298050512,0.670820393249936,0.948683298050512,0.670820393249936,
0.948683298050512,0.670820393249936,0.948683298050512),(1.,0.707106781186548,
1.,0.707106781186548,1.,0.707106781186548,1.,0.707106781186548,1.)))
REPRESENTATION_ITEM('')
SURFACE()
);
#19=LINE('',#354,#21);
#20=LINE('',#455,#22);
#21=VECTOR('',#279,6.);
#22=VECTOR('',#338,8.);
#23=CYLINDRICAL_SURFACE('',#231,6.);
#24=CYLINDRICAL_SURFACE('',#260,8.);
#25=FACE_OUTER_BOUND('',#35,.T.);
#26=FACE_OUTER_BOUND('',#36,.T.);
#27=FACE_OUTER_BOUND('',#37,.T.);
#28=FACE_OUTER_BOUND('',#38,.T.);
#29=FACE_OUTER_BOUND('',#39,.T.);
#30=FACE_OUTER_BOUND('',#40,.T.);
#31=FACE_OUTER_BOUND('',#41,.T.);
#32=FACE_OUTER_BOUND('',#42,.T.);
#33=FACE_OUTER_BOUND('',#43,.T.);
#34=FACE_OUTER_BOUND('',#44,.T.);
#35=EDGE_LOOP('',(#128,#129,#130,#131,#132,#133,#134));
#36=EDGE_LOOP('',(#135,#136,#137,#138,#139,#140,#141,#142));
#37=EDGE_LOOP('',(#143,#144,#145,#146,#147,#148,#149));
#38=EDGE_LOOP('',(#150,#151,#152,#153,#154,#155,#156));
#39=EDGE_LOOP('',(#157,#158));
#40=EDGE_LOOP('',(#159,#160,#161,#162,#163,#164,#165));
#41=EDGE_LOOP('',(#166,#167));
#42=EDGE_LOOP('',(#168,#169,#170,#171,#172,#173,#174));
#43=EDGE_LOOP('',(#175,#176,#177,#178,#179,#180,#181));
#44=EDGE_LOOP('',(#182,#183,#184,#185,#186,#187,#188,#189));
#45=CIRCLE('',#225,5.5);
#46=CIRCLE('',#226,5.5);
#47=CIRCLE('',#227,0.500000000000002);
#48=CIRCLE('',#228,6.);
#49=CIRCLE('',#229,6.);
#50=CIRCLE('',#230,6.);
#51=CIRCLE('',#232,6.);
#52=CIRCLE('',#233,6.);
#53=CIRCLE('',#234,6.);
#54=CIRCLE('',#235,3.);
#55=CIRCLE('',#236,4.58490566037736);
#56=CIRCLE('',#237,4.58490566037736);
#57=CIRCLE('',#239,5.);
#58=CIRCLE('',#240,5.);
#59=CIRCLE('',#241,0.785714285714286);
#60=CIRCLE('',#242,5.);
#61=CIRCLE('',#245,7.);
#62=CIRCLE('',#246,7.);
#63=CIRCLE('',#247,1.);
#64=CIRCLE('',#248,8.);
#65=CIRCLE('',#249,8.);
#66=CIRCLE('',#250,8.);
#67=CIRCLE('',#253,7.);
#68=CIRCLE('',#254,7.);
#69=CIRCLE('',#255,2.5);
#70=CIRCLE('',#256,8.);
#71=CIRCLE('',#257,8.);
#72=CIRCLE('',#258,8.);
#73=CIRCLE('',#259,5.);
#74=VERTEX_POINT('',#341);
#75=VERTEX_POINT('',#342);
#76=VERTEX_POINT('',#345);
#77=VERTEX_POINT('',#347);
#78=VERTEX_POINT('',#349);
#79=VERTEX_POINT('',#353);
#80=VERTEX_POINT('',#355);
#81=VERTEX_POINT('',#357);
#82=VERTEX_POINT('',#387);
#83=VERTEX_POINT('',#389);
#84=VERTEX_POINT('',#393);
#85=VERTEX_POINT('',#394);
#86=VERTEX_POINT('',#396);
#87=VERTEX_POINT('',#402);
#88=VERTEX_POINT('',#403);
#89=VERTEX_POINT('',#406);
#90=VERTEX_POINT('',#408);
#91=VERTEX_POINT('',#410);
#92=VERTEX_POINT('',#415);
#93=VERTEX_POINT('',#416);
#94=VERTEX_POINT('',#447);
#95=VERTEX_POINT('',#448);
#96=VERTEX_POINT('',#450);
#97=EDGE_CURVE('',#74,#75,#45,.T.);
#98=EDGE_CURVE('',#75,#74,#46,.T.);
#99=EDGE_CURVE('',#75,#76,#47,.T.);
#100=EDGE_CURVE('',#76,#77,#48,.T.);
#101=EDGE_CURVE('',#77,#78,#49,.T.);
#102=EDGE_CURVE('',#78,#76,#50,.T.);
#103=EDGE_CURVE('',#78,#79,#19,.T.);
#104=EDGE_CURVE('',#79,#80,#51,.T.);
#105=EDGE_CURVE('',#80,#81,#52,.T.);
#106=EDGE_CURVE('',#81,#79,#53,.T.);
#107=EDGE_CURVE('',#80,#82,#54,.T.);
#108=EDGE_CURVE('',#82,#83,#55,.T.);
#109=EDGE_CURVE('',#83,#82,#56,.T.);
#110=EDGE_CURVE('',#84,#85,#57,.T.);
#111=EDGE_CURVE('',#86,#84,#58,.T.);
#112=EDGE_CURVE('',#86,#82,#59,.T.);
#113=EDGE_CURVE('',#85,#86,#60,.T.);
#114=EDGE_CURVE('',#87,#88,#61,.T.);
#115=EDGE_CURVE('',#88,#87,#62,.T.);
#116=EDGE_CURVE('',#88,#89,#63,.T.);
#117=EDGE_CURVE('',#89,#90,#64,.T.);
#118=EDGE_CURVE('',#90,#91,#65,.T.);
#119=EDGE_CURVE('',#91,#89,#66,.T.);
#120=EDGE_CURVE('',#92,#93,#67,.T.);
#121=EDGE_CURVE('',#93,#92,#68,.T.);
#122=EDGE_CURVE('',#93,#85,#69,.T.);
#123=EDGE_CURVE('',#94,#95,#70,.T.);
#124=EDGE_CURVE('',#96,#94,#71,.T.);
#125=EDGE_CURVE('',#95,#96,#72,.T.);
#126=EDGE_CURVE('',#95,#93,#73,.T.);
#127=EDGE_CURVE('',#90,#96,#20,.T.);
#128=ORIENTED_EDGE('',*,*,#97,.F.);
#129=ORIENTED_EDGE('',*,*,#98,.F.);
#130=ORIENTED_EDGE('',*,*,#99,.T.);
#131=ORIENTED_EDGE('',*,*,#100,.T.);
#132=ORIENTED_EDGE('',*,*,#101,.T.);
#133=ORIENTED_EDGE('',*,*,#102,.T.);
#134=ORIENTED_EDGE('',*,*,#99,.F.);
#135=ORIENTED_EDGE('',*,*,#101,.F.);
#136=ORIENTED_EDGE('',*,*,#100,.F.);
#137=ORIENTED_EDGE('',*,*,#102,.F.);
#138=ORIENTED_EDGE('',*,*,#103,.T.);
#139=ORIENTED_EDGE('',*,*,#104,.T.);
#140=ORIENTED_EDGE('',*,*,#105,.T.);
#141=ORIENTED_EDGE('',*,*,#106,.T.);
#142=ORIENTED_EDGE('',*,*,#103,.F.);
#143=ORIENTED_EDGE('',*,*,#106,.F.);
#144=ORIENTED_EDGE('',*,*,#105,.F.);
#145=ORIENTED_EDGE('',*,*,#107,.T.);
#146=ORIENTED_EDGE('',*,*,#108,.T.);
#147=ORIENTED_EDGE('',*,*,#109,.T.);
#148=ORIENTED_EDGE('',*,*,#107,.F.);
#149=ORIENTED_EDGE('',*,*,#104,.F.);
#150=ORIENTED_EDGE('',*,*,#110,.F.);
#151=ORIENTED_EDGE('',*,*,#111,.F.);
#152=ORIENTED_EDGE('',*,*,#112,.T.);
#153=ORIENTED_EDGE('',*,*,#109,.F.);
#154=ORIENTED_EDGE('',*,*,#108,.F.);
#155=ORIENTED_EDGE('',*,*,#112,.F.);
#156=ORIENTED_EDGE('',*,*,#113,.F.);
#157=ORIENTED_EDGE('',*,*,#97,.T.);
#158=ORIENTED_EDGE('',*,*,#98,.T.);
#159=ORIENTED_EDGE('',*,*,#114,.F.);
#160=ORIENTED_EDGE('',*,*,#115,.F.);
#161=ORIENTED_EDGE('',*,*,#116,.T.);
#162=ORIENTED_EDGE('',*,*,#117,.T.);
#163=ORIENTED_EDGE('',*,*,#118,.T.);
#164=ORIENTED_EDGE('',*,*,#119,.T.);
#165=ORIENTED_EDGE('',*,*,#116,.F.);
#166=ORIENTED_EDGE('',*,*,#114,.T.);
#167=ORIENTED_EDGE('',*,*,#115,.T.);
#168=ORIENTED_EDGE('',*,*,#120,.F.);
#169=ORIENTED_EDGE('',*,*,#121,.F.);
#170=ORIENTED_EDGE('',*,*,#122,.T.);
#171=ORIENTED_EDGE('',*,*,#113,.T.);
#172=ORIENTED_EDGE('',*,*,#111,.T.);
#173=ORIENTED_EDGE('',*,*,#110,.T.);
#174=ORIENTED_EDGE('',*,*,#122,.F.);
#175=ORIENTED_EDGE('',*,*,#123,.F.);
#176=ORIENTED_EDGE('',*,*,#124,.F.);
#177=ORIENTED_EDGE('',*,*,#125,.F.);
#178=ORIENTED_EDGE('',*,*,#126,.T.);
#179=ORIENTED_EDGE('',*,*,#121,.T.);
#180=ORIENTED_EDGE('',*,*,#120,.T.);
#181=ORIENTED_EDGE('',*,*,#126,.F.);
#182=ORIENTED_EDGE('',*,*,#119,.F.);
#183=ORIENTED_EDGE('',*,*,#118,.F.);
#184=ORIENTED_EDGE('',*,*,#127,.T.);
#185=ORIENTED_EDGE('',*,*,#124,.T.);
#186=ORIENTED_EDGE('',*,*,#123,.T.);
#187=ORIENTED_EDGE('',*,*,#125,.T.);
#188=ORIENTED_EDGE('',*,*,#127,.F.);
#189=ORIENTED_EDGE('',*,*,#117,.F.);
#190=TOROIDAL_SURFACE('',#224,5.5,0.500000000000002);
#191=TOROIDAL_SURFACE('',#238,5.,0.785714285714286);
#192=TOROIDAL_SURFACE('',#244,7.,1.);
#193=TOROIDAL_SURFACE('',#252,5.,2.5);
#194=ADVANCED_FACE('',(#25),#190,.F.);
#195=ADVANCED_FACE('',(#26),#23,.F.);
#196=ADVANCED_FACE('',(#27),#17,.T.);
#197=ADVANCED_FACE('',(#28),#191,.T.);
#198=ADVANCED_FACE('',(#29),#15,.F.);
#199=ADVANCED_FACE('',(#30),#192,.T.);
#200=ADVANCED_FACE('',(#31),#16,.T.);
#201=ADVANCED_FACE('',(#32),#193,.T.);
#202=ADVANCED_FACE('',(#33),#18,.F.);
#203=ADVANCED_FACE('',(#34),#24,.T.);
#204=CLOSED_SHELL('',(#194,#195,#196,#197,#198,#199,#200,#201,#202,#203));
#205=DERIVED_UNIT_ELEMENT(#207,1.);
#206=DERIVED_UNIT_ELEMENT(#461,3.);
#207=(
MASS_UNIT()
NAMED_UNIT(*)
SI_UNIT($,.GRAM.)
);
#208=DERIVED_UNIT((#205,#206));
#209=MEASURE_REPRESENTATION_ITEM('density measure',
POSITIVE_RATIO_MEASURE(0.93),#208);
#210=PROPERTY_DEFINITION_REPRESENTATION(#215,#212);
#211=PROPERTY_DEFINITION_REPRESENTATION(#216,#213);
#212=REPRESENTATION('material name',(#214),#458);
#213=REPRESENTATION('density',(#209),#458);
#214=DESCRIPTIVE_REPRESENTATION_ITEM('Rubber','Rubber');
#215=PROPERTY_DEFINITION('material property','material name',#468);
#216=PROPERTY_DEFINITION('material property','density of part',#468);
#217=DATE_TIME_ROLE('creation_date');
#218=APPLIED_DATE_AND_TIME_ASSIGNMENT(#219,#217,(#468));
#219=DATE_AND_TIME(#220,#221);
#220=CALENDAR_DATE(2021,27,10);
#221=LOCAL_TIME(0,0,0.,#222);
#222=COORDINATED_UNIVERSAL_TIME_OFFSET(0,0,.BEHIND.);
#223=AXIS2_PLACEMENT_3D('placement',#339,#261,#262);
#224=AXIS2_PLACEMENT_3D('',#340,#263,#264);
#225=AXIS2_PLACEMENT_3D('',#343,#265,#266);
#226=AXIS2_PLACEMENT_3D('',#344,#267,#268);
#227=AXIS2_PLACEMENT_3D('',#346,#269,#270);
#228=AXIS2_PLACEMENT_3D('',#348,#271,#272);
#229=AXIS2_PLACEMENT_3D('',#350,#273,#274);
#230=AXIS2_PLACEMENT_3D('',#351,#275,#276);
#231=AXIS2_PLACEMENT_3D('',#352,#277,#278);
#232=AXIS2_PLACEMENT_3D('',#356,#280,#281);
#233=AXIS2_PLACEMENT_3D('',#358,#282,#283);
#234=AXIS2_PLACEMENT_3D('',#359,#284,#285);
#235=AXIS2_PLACEMENT_3D('',#388,#286,#287);
#236=AXIS2_PLACEMENT_3D('',#390,#288,#289);
#237=AXIS2_PLACEMENT_3D('',#391,#290,#291);
#238=AXIS2_PLACEMENT_3D('',#392,#292,#293);
#239=AXIS2_PLACEMENT_3D('',#395,#294,#295);
#240=AXIS2_PLACEMENT_3D('',#397,#296,#297);
#241=AXIS2_PLACEMENT_3D('',#398,#298,#299);
#242=AXIS2_PLACEMENT_3D('',#399,#300,#301);
#243=AXIS2_PLACEMENT_3D('',#400,#302,#303);
#244=AXIS2_PLACEMENT_3D('',#401,#304,#305);
#245=AXIS2_PLACEMENT_3D('',#404,#306,#307);
#246=AXIS2_PLACEMENT_3D('',#405,#308,#309);
#247=AXIS2_PLACEMENT_3D('',#407,#310,#311);
#248=AXIS2_PLACEMENT_3D('',#409,#312,#313);
#249=AXIS2_PLACEMENT_3D('',#411,#314,#315);
#250=AXIS2_PLACEMENT_3D('',#412,#316,#317);
#251=AXIS2_PLACEMENT_3D('',#413,#318,#319);
#252=AXIS2_PLACEMENT_3D('',#414,#320,#321);
#253=AXIS2_PLACEMENT_3D('',#417,#322,#323);
#254=AXIS2_PLACEMENT_3D('',#418,#324,#325);
#255=AXIS2_PLACEMENT_3D('',#419,#326,#327);
#256=AXIS2_PLACEMENT_3D('',#449,#328,#329);
#257=AXIS2_PLACEMENT_3D('',#451,#330,#331);
#258=AXIS2_PLACEMENT_3D('',#452,#332,#333);
#259=AXIS2_PLACEMENT_3D('',#453,#334,#335);
#260=AXIS2_PLACEMENT_3D('',#454,#336,#337);
#261=DIRECTION('axis',(0.,0.,1.));
#262=DIRECTION('refdir',(1.,0.,0.));
#263=DIRECTION('center_axis',(-9.25185853854297E-17,1.,0.));
#264=DIRECTION('ref_axis',(0.,0.,1.));
#265=DIRECTION('center_axis',(-9.25185853854297E-17,1.,0.));
#266=DIRECTION('ref_axis',(1.,9.25185853854297E-17,0.));
#267=DIRECTION('center_axis',(-9.25185853854297E-17,1.,0.));
#268=DIRECTION('ref_axis',(1.,9.25185853854297E-17,0.));
#269=DIRECTION('center_axis',(1.,9.25185853854297E-17,-1.22464679914735E-16));
#270=DIRECTION('ref_axis',(-1.22464679914735E-16,0.,-1.));
#271=DIRECTION('center_axis',(-9.25185853854297E-17,1.,0.));
#272=DIRECTION('ref_axis',(1.,9.25185853854297E-17,0.));
#273=DIRECTION('center_axis',(-9.25185853854297E-17,1.,0.));
#274=DIRECTION('ref_axis',(1.,9.25185853854297E-17,0.));
#275=DIRECTION('center_axis',(-9.25185853854297E-17,1.,0.));
#276=DIRECTION('ref_axis',(1.,9.25185853854297E-17,0.));
#277=DIRECTION('center_axis',(-9.25185853854297E-17,1.,0.));
#278=DIRECTION('ref_axis',(-1.,-1.78428563378539E-16,0.));
#279=DIRECTION('',(-9.25185853854297E-17,1.,0.));
#280=DIRECTION('center_axis',(-9.25185853854297E-17,1.,0.));
#281=DIRECTION('ref_axis',(1.,9.25185853854297E-17,0.));
#282=DIRECTION('center_axis',(-9.25185853854297E-17,1.,0.));
#283=DIRECTION('ref_axis',(1.,9.25185853854297E-17,0.));
#284=DIRECTION('center_axis',(-9.25185853854297E-17,1.,0.));
#285=DIRECTION('ref_axis',(1.,9.25185853854297E-17,0.));
#286=DIRECTION('center_axis',(1.,9.25185853854297E-17,-1.22464679914735E-16));
#287=DIRECTION('ref_axis',(-1.22464679914735E-16,0.,-1.));
#288=DIRECTION('center_axis',(-9.25185853854297E-17,1.,0.));
#289=DIRECTION('ref_axis',(1.,9.25185853854297E-17,0.));
#290=DIRECTION('center_axis',(-9.25185853854297E-17,1.,0.));
#291=DIRECTION('ref_axis',(1.,9.25185853854297E-17,0.));
#292=DIRECTION('center_axis',(-9.25185853854297E-17,1.,0.));
#293=DIRECTION('ref_axis',(0.,0.,1.));
#294=DIRECTION('center_axis',(0.,-1.,0.));
#295=DIRECTION('ref_axis',(1.,0.,0.));
#296=DIRECTION('center_axis',(0.,-1.,0.));
#297=DIRECTION('ref_axis',(1.,0.,0.));
#298=DIRECTION('center_axis',(1.,9.25185853854297E-17,-1.22464679914735E-16));
#299=DIRECTION('ref_axis',(-1.22464679914735E-16,0.,-1.));
#300=DIRECTION('center_axis',(0.,-1.,0.));
#301=DIRECTION('ref_axis',(1.,0.,0.));
#302=DIRECTION('center_axis',(9.25185853854297E-17,-1.,0.));
#303=DIRECTION('ref_axis',(0.,0.,-1.));
#304=DIRECTION('center_axis',(0.,-1.,0.));
#305=DIRECTION('ref_axis',(0.,0.,-1.));
#306=DIRECTION('center_axis',(0.,-1.,0.));
#307=DIRECTION('ref_axis',(1.,0.,0.));
#308=DIRECTION('center_axis',(0.,-1.,0.));
#309=DIRECTION('ref_axis',(1.,0.,0.));
#310=DIRECTION('center_axis',(-1.,0.,-1.22464679914735E-16));
#311=DIRECTION('ref_axis',(-1.22464679914735E-16,0.,1.));
#312=DIRECTION('center_axis',(0.,-1.,0.));
#313=DIRECTION('ref_axis',(1.,0.,0.));
#314=DIRECTION('center_axis',(0.,-1.,0.));
#315=DIRECTION('ref_axis',(1.,0.,0.));
#316=DIRECTION('center_axis',(0.,-1.,0.));
#317=DIRECTION('ref_axis',(1.,0.,0.));
#318=DIRECTION('center_axis',(0.,-1.,0.));
#319=DIRECTION('ref_axis',(0.,0.,-1.));
#320=DIRECTION('center_axis',(0.,-1.,0.));
#321=DIRECTION('ref_axis',(0.,0.,-1.));
#322=DIRECTION('center_axis',(0.,-1.,0.));
#323=DIRECTION('ref_axis',(1.,0.,0.));
#324=DIRECTION('center_axis',(0.,-1.,0.));
#325=DIRECTION('ref_axis',(1.,0.,0.));
#326=DIRECTION('center_axis',(-1.,0.,-1.22464679914735E-16));
#327=DIRECTION('ref_axis',(-1.22464679914735E-16,0.,1.));
#328=DIRECTION('center_axis',(0.,-1.,0.));
#329=DIRECTION('ref_axis',(1.,0.,0.));
#330=DIRECTION('center_axis',(0.,-1.,0.));
#331=DIRECTION('ref_axis',(1.,0.,0.));
#332=DIRECTION('center_axis',(0.,-1.,0.));
#333=DIRECTION('ref_axis',(1.,0.,0.));
#334=DIRECTION('center_axis',(-1.,0.,-1.22464679914735E-16));
#335=DIRECTION('ref_axis',(-1.22464679914735E-16,0.,1.));
#336=DIRECTION('center_axis',(0.,-1.,0.));
#337=DIRECTION('ref_axis',(1.,0.,0.));
#338=DIRECTION('',(0.,1.,0.));
#339=CARTESIAN_POINT('',(0.,0.,0.));
#340=CARTESIAN_POINT('Origin',(-1.66533453693773E-16,1.8,0.));
#341=CARTESIAN_POINT('',(-5.5,1.3,0.));
#342=CARTESIAN_POINT('',(-7.93829900532103E-16,1.3,-5.5));
#343=CARTESIAN_POINT('Origin',(-1.20274161001059E-16,1.3,0.));
#344=CARTESIAN_POINT('Origin',(-1.20274161001059E-16,1.3,0.));
#345=CARTESIAN_POINT('',(-9.01321533182186E-16,1.8,-6.));
#346=CARTESIAN_POINT('Origin',(-8.40089193224818E-16,1.8,-5.5));
#347=CARTESIAN_POINT('',(-6.,1.8,0.));
#348=CARTESIAN_POINT('Origin',(-1.66533453693773E-16,1.8,0.));
#349=CARTESIAN_POINT('',(6.,1.8,-7.34788079488412E-16));
#350=CARTESIAN_POINT('Origin',(-1.66533453693773E-16,1.8,0.));
#351=CARTESIAN_POINT('Origin',(-1.66533453693773E-16,1.8,0.));
#352=CARTESIAN_POINT('Origin',(-1.75785312232316E-16,1.9,0.));
#353=CARTESIAN_POINT('',(6.,2.,-7.34788079488412E-16));
#354=CARTESIAN_POINT('',(6.,1.9,-7.34788079488412E-16));
#355=CARTESIAN_POINT('',(-9.19825250259272E-16,2.,-6.));
#356=CARTESIAN_POINT('Origin',(-1.85037170770859E-16,2.,0.));
#357=CARTESIAN_POINT('',(-6.,2.,0.));
#358=CARTESIAN_POINT('Origin',(-1.85037170770859E-16,2.,0.));
#359=CARTESIAN_POINT('Origin',(-1.85037170770859E-16,2.,0.));
#360=CARTESIAN_POINT('Ctrl Pts',(-1.85037170770859E-16,2.,-6.));
#361=CARTESIAN_POINT('Ctrl Pts',(-6.,2.,-6.));
#362=CARTESIAN_POINT('Ctrl Pts',(-6.,2.,3.08148791101958E-32));
#363=CARTESIAN_POINT('Ctrl Pts',(-6.,2.,6.));
#364=CARTESIAN_POINT('Ctrl Pts',(-1.85037170770859E-16,2.,6.));
#365=CARTESIAN_POINT('Ctrl Pts',(6.,2.,6.));
#366=CARTESIAN_POINT('Ctrl Pts',(6.,2.,-3.08148791101958E-32));
#367=CARTESIAN_POINT('Ctrl Pts',(6.,2.,-6.));
#368=CARTESIAN_POINT('Ctrl Pts',(-1.85037170770859E-16,2.,-6.));
#369=CARTESIAN_POINT('Ctrl Pts',(-3.39234813079909E-16,3.66666666666667,
-6.));
#370=CARTESIAN_POINT('Ctrl Pts',(-6.,3.66666666666667,-6.));
#371=CARTESIAN_POINT('Ctrl Pts',(-6.,3.66666666666667,0.));
#372=CARTESIAN_POINT('Ctrl Pts',(-6.,3.66666666666667,6.));
#373=CARTESIAN_POINT('Ctrl Pts',(-3.39234813079909E-16,3.66666666666667,
6.));
#374=CARTESIAN_POINT('Ctrl Pts',(6.,3.66666666666667,6.));
#375=CARTESIAN_POINT('Ctrl Pts',(6.,3.66666666666667,0.));
#376=CARTESIAN_POINT('Ctrl Pts',(6.,3.66666666666667,-6.));
#377=CARTESIAN_POINT('Ctrl Pts',(-3.39234813079909E-16,3.66666666666667,
-6.));
#378=CARTESIAN_POINT('Ctrl Pts',(-4.20697718450728E-16,4.54716981132076,
-4.58490566037736));
#379=CARTESIAN_POINT('Ctrl Pts',(-4.58490566037736,4.54716981132076,-4.58490566037736));
#380=CARTESIAN_POINT('Ctrl Pts',(-4.58490566037736,4.54716981132076,0.));
#381=CARTESIAN_POINT('Ctrl Pts',(-4.58490566037736,4.54716981132076,4.58490566037736));
#382=CARTESIAN_POINT('Ctrl Pts',(-4.20697718450728E-16,4.54716981132076,
4.58490566037736));
#383=CARTESIAN_POINT('Ctrl Pts',(4.58490566037736,4.54716981132076,4.58490566037736));
#384=CARTESIAN_POINT('Ctrl Pts',(4.58490566037736,4.54716981132076,0.));
#385=CARTESIAN_POINT('Ctrl Pts',(4.58490566037736,4.54716981132076,-4.58490566037736));
#386=CARTESIAN_POINT('Ctrl Pts',(-4.20697718450728E-16,4.54716981132076,
-4.58490566037736));
#387=CARTESIAN_POINT('',(-9.82186722588099E-16,4.54716981132076,-4.58490566037736));
#388=CARTESIAN_POINT('Origin',(-5.52431210515065E-16,2.,-3.));
#389=CARTESIAN_POINT('',(-4.58490566037736,4.54716981132076,0.));
#390=CARTESIAN_POINT('Origin',(-4.20697718450728E-16,4.54716981132076,0.));
#391=CARTESIAN_POINT('Origin',(-4.20697718450728E-16,4.54716981132076,0.));
#392=CARTESIAN_POINT('Origin',(-4.82418338081169E-16,5.21428571428572,0.));
#393=CARTESIAN_POINT('',(5.,6.,0.));
#394=CARTESIAN_POINT('',(-6.12323399573677E-16,6.,5.));
#395=CARTESIAN_POINT('Origin',(0.,6.,0.));
#396=CARTESIAN_POINT('',(-1.16743491188625E-15,6.,-5.));
#397=CARTESIAN_POINT('Origin',(0.,6.,0.));
#398=CARTESIAN_POINT('Origin',(-1.09474173765485E-15,5.21428571428572,-5.));
#399=CARTESIAN_POINT('Origin',(0.,6.,0.));
#400=CARTESIAN_POINT('Origin',(-5.5,1.3,0.));
#401=CARTESIAN_POINT('Origin',(0.,1.,0.));
#402=CARTESIAN_POINT('',(7.,0.,0.));
#403=CARTESIAN_POINT('',(-8.57252759403147E-16,0.,7.));
#404=CARTESIAN_POINT('Origin',(0.,0.,0.));
#405=CARTESIAN_POINT('Origin',(0.,0.,0.));
#406=CARTESIAN_POINT('',(-9.79717439317883E-16,1.,8.));
#407=CARTESIAN_POINT('Origin',(-8.57252759403147E-16,1.,7.));
#408=CARTESIAN_POINT('',(-8.,1.,-9.79717439317883E-16));
#409=CARTESIAN_POINT('Origin',(0.,1.,0.));
#410=CARTESIAN_POINT('',(8.,1.,0.));
#411=CARTESIAN_POINT('Origin',(0.,1.,0.));
#412=CARTESIAN_POINT('Origin',(0.,1.,0.));
#413=CARTESIAN_POINT('Origin',(0.,0.,0.));
#414=CARTESIAN_POINT('Origin',(0.,3.5,0.));
#415=CARTESIAN_POINT('',(7.,5.,0.));
#416=CARTESIAN_POINT('',(-8.57252759403147E-16,5.,7.));
#417=CARTESIAN_POINT('Origin',(0.,5.,0.));
#418=CARTESIAN_POINT('Origin',(0.,5.,0.));
#419=CARTESIAN_POINT('Origin',(-6.12323399573677E-16,3.5,5.));
#420=CARTESIAN_POINT('Ctrl Pts',(0.,5.,7.));
#421=CARTESIAN_POINT('Ctrl Pts',(-7.,5.,7.));
#422=CARTESIAN_POINT('Ctrl Pts',(-7.,5.,0.));
#423=CARTESIAN_POINT('Ctrl Pts',(-7.,5.,-7.));
#424=CARTESIAN_POINT('Ctrl Pts',(0.,5.,-7.));
#425=CARTESIAN_POINT('Ctrl Pts',(7.,5.,-7.));
#426=CARTESIAN_POINT('Ctrl Pts',(7.,5.,0.));
#427=CARTESIAN_POINT('Ctrl Pts',(7.,5.,7.));
#428=CARTESIAN_POINT('Ctrl Pts',(0.,5.,7.));
#429=CARTESIAN_POINT('Ctrl Pts',(0.,3.66666666666667,8.));
#430=CARTESIAN_POINT('Ctrl Pts',(-8.,3.66666666666667,8.));
#431=CARTESIAN_POINT('Ctrl Pts',(-8.,3.66666666666667,0.));
#432=CARTESIAN_POINT('Ctrl Pts',(-8.,3.66666666666667,-8.));
#433=CARTESIAN_POINT('Ctrl Pts',(0.,3.66666666666667,-8.));
#434=CARTESIAN_POINT('Ctrl Pts',(8.,3.66666666666667,-8.));
#435=CARTESIAN_POINT('Ctrl Pts',(8.,3.66666666666667,0.));
#436=CARTESIAN_POINT('Ctrl Pts',(8.,3.66666666666667,8.));
#437=CARTESIAN_POINT('Ctrl Pts',(0.,3.66666666666667,8.));
#438=CARTESIAN_POINT('Ctrl Pts',(0.,2.,8.));
#439=CARTESIAN_POINT('Ctrl Pts',(-8.,2.,8.));
#440=CARTESIAN_POINT('Ctrl Pts',(-8.,2.,0.));
#441=CARTESIAN_POINT('Ctrl Pts',(-8.,2.,-8.));
#442=CARTESIAN_POINT('Ctrl Pts',(0.,2.,-8.));
#443=CARTESIAN_POINT('Ctrl Pts',(8.,2.,-8.));
#444=CARTESIAN_POINT('Ctrl Pts',(8.,2.,0.));
#445=CARTESIAN_POINT('Ctrl Pts',(8.,2.,8.));
#446=CARTESIAN_POINT('Ctrl Pts',(0.,2.,8.));
#447=CARTESIAN_POINT('',(8.,2.,0.));
#448=CARTESIAN_POINT('',(-9.79717439317883E-16,2.,8.));
#449=CARTESIAN_POINT('Origin',(0.,2.,0.));
#450=CARTESIAN_POINT('',(-8.,2.,-9.79717439317883E-16));
#451=CARTESIAN_POINT('Origin',(0.,2.,0.));
#452=CARTESIAN_POINT('Origin',(0.,2.,0.));
#453=CARTESIAN_POINT('Origin',(-3.67394039744206E-16,2.,3.));
#454=CARTESIAN_POINT('Origin',(0.,1.5,0.));
#455=CARTESIAN_POINT('',(-8.,1.5,-9.79717439317883E-16));
#456=UNCERTAINTY_MEASURE_WITH_UNIT(LENGTH_MEASURE(0.01),#460,
'DISTANCE_ACCURACY_VALUE',
'Maximum model space distance between geometric entities at asserted c
onnectivities');
#457=UNCERTAINTY_MEASURE_WITH_UNIT(LENGTH_MEASURE(0.01),#460,
'DISTANCE_ACCURACY_VALUE',
'Maximum model space distance between geometric entities at asserted c
onnectivities');
#458=(
GEOMETRIC_REPRESENTATION_CONTEXT(3)
GLOBAL_UNCERTAINTY_ASSIGNED_CONTEXT((#456))
GLOBAL_UNIT_ASSIGNED_CONTEXT((#460,#462,#463))
REPRESENTATION_CONTEXT('','3D')
);
#459=(
GEOMETRIC_REPRESENTATION_CONTEXT(3)
GLOBAL_UNCERTAINTY_ASSIGNED_CONTEXT((#457))
GLOBAL_UNIT_ASSIGNED_CONTEXT((#460,#462,#463))
REPRESENTATION_CONTEXT('','3D')
);
#460=(
LENGTH_UNIT()
NAMED_UNIT(*)
SI_UNIT(.MILLI.,.METRE.)
);
#461=(
LENGTH_UNIT()
NAMED_UNIT(*)
SI_UNIT(.CENTI.,.METRE.)
);
#462=(
NAMED_UNIT(*)
PLANE_ANGLE_UNIT()
SI_UNIT($,.RADIAN.)
);
#463=(
NAMED_UNIT(*)
SI_UNIT($,.STERADIAN.)
SOLID_ANGLE_UNIT()
);
#464=SHAPE_DEFINITION_REPRESENTATION(#465,#466);
#465=PRODUCT_DEFINITION_SHAPE('',$,#468);
#466=SHAPE_REPRESENTATION('',(#223),#458);
#467=PRODUCT_DEFINITION_CONTEXT('part definition',#472,'design');
#468=PRODUCT_DEFINITION('SMC5-6','SMC5-6',#469,#467);
#469=PRODUCT_DEFINITION_FORMATION('',$,#474);
#470=PRODUCT_RELATED_PRODUCT_CATEGORY('SMC5-6','SMC5-6',(#474));
#471=APPLICATION_PROTOCOL_DEFINITION('international standard',
'automotive_design',2009,#472);
#472=APPLICATION_CONTEXT(
'Core Data for Automotive Mechanical Design Process');
#473=PRODUCT_CONTEXT('part definition',#472,'mechanical');
#474=PRODUCT('SMC5-6','SMC5-6',$,(#473));
#475=PRESENTATION_STYLE_ASSIGNMENT((#476));
#476=SURFACE_STYLE_USAGE(.BOTH.,#479);
#477=SURFACE_STYLE_RENDERING_WITH_PROPERTIES($,#483,(#478));
#478=SURFACE_STYLE_TRANSPARENT(0.);
#479=SURFACE_SIDE_STYLE('',(#480,#477));
#480=SURFACE_STYLE_FILL_AREA(#481);
#481=FILL_AREA_STYLE('',(#482));
#482=FILL_AREA_STYLE_COLOUR('',#483);
#483=COLOUR_RGB('',0.250980392156863,0.250980392156863,0.250980392156863);
ENDSEC;
END-ISO-10303-21;
