ISO-10303-21;
HEADER;
/* Generated by software containing ST-Developer
 * from STEP Tools, Inc. (www.steptools.com) 
 */

FILE_DESCRIPTION(
/* description */ (''),
/* implementation_level */ '2;1');

FILE_NAME(
/* name */ 'C:\\TEMP\\NM6 Simplified.stp',
/* time_stamp */ '2021-10-14T15:44:17+01:00',
/* author */ ('Sandfield Engineering'),
/* organization */ ('Sandfield Engineering'),
/* preprocessor_version */ 'ST-DEVELOPER v18.1',
/* originating_system */ 'Autodesk Inventor 2021',
/* authorisation */ '');

FILE_SCHEMA (('AUTOMOTIVE_DESIGN { 1 0 10303 214 3 1 1 }'));
ENDSEC;

DATA;
#10=MECHANICAL_DESIGN_GEOMETRIC_PRESENTATION_REPRESENTATION('',(#200,#201,
#202,#203,#204,#205,#206),#419);
#11=SHAPE_REPRESENTATION_RELATIONSHIP('SRR','None',#426,#12);
#12=ADVANCED_BREP_SHAPE_REPRESENTATION('',(#13),#418);
#13=MANIFOLD_SOLID_BREP('Solid1',#218);
#14=FACE_BOUND('',#41,.T.);
#15=FACE_BOUND('',#48,.T.);
#16=PLANE('',#258);
#17=PLANE('',#259);
#18=PLANE('',#272);
#19=CONICAL_SURFACE('',#250,7.01736308471803,0.123429497356123);
#20=CONICAL_SURFACE('',#260,1.22925,1.02974425867665);
#21=CONICAL_SURFACE('',#263,2.60425,0.785398163397448);
#22=CONICAL_SURFACE('',#269,4.775,0.785398163397449);
#23=TOROIDAL_SURFACE('',#243,5.75819703714082,0.500000000000001);
#24=TOROIDAL_SURFACE('',#254,7.28413688676488,0.499999999999999);
#25=FACE_OUTER_BOUND('',#36,.T.);
#26=FACE_OUTER_BOUND('',#37,.T.);
#27=FACE_OUTER_BOUND('',#38,.T.);
#28=FACE_OUTER_BOUND('',#39,.T.);
#29=FACE_OUTER_BOUND('',#40,.T.);
#30=FACE_OUTER_BOUND('',#42,.T.);
#31=FACE_OUTER_BOUND('',#43,.T.);
#32=FACE_OUTER_BOUND('',#44,.T.);
#33=FACE_OUTER_BOUND('',#45,.T.);
#34=FACE_OUTER_BOUND('',#46,.T.);
#35=FACE_OUTER_BOUND('',#47,.T.);
#36=EDGE_LOOP('',(#138,#139,#140,#141,#142,#143));
#37=EDGE_LOOP('',(#144,#145,#146,#147,#148,#149,#150));
#38=EDGE_LOOP('',(#151,#152,#153,#154,#155,#156,#157,#158));
#39=EDGE_LOOP('',(#159,#160,#161,#162,#163,#164,#165));
#40=EDGE_LOOP('',(#166,#167));
#41=EDGE_LOOP('',(#168));
#42=EDGE_LOOP('',(#169,#170));
#43=EDGE_LOOP('',(#171,#172,#173,#174));
#44=EDGE_LOOP('',(#175,#176,#177,#178,#179,#180));
#45=EDGE_LOOP('',(#181,#182,#183,#184,#185,#186));
#46=EDGE_LOOP('',(#187,#188,#189,#190,#191,#192,#193));
#47=EDGE_LOOP('',(#194,#195));
#48=EDGE_LOOP('',(#196,#197));
#49=LINE('',#356,#55);
#50=LINE('',#381,#56);
#51=LINE('',#395,#57);
#52=LINE('',#403,#58);
#53=LINE('',#408,#59);
#54=LINE('',#414,#60);
#55=VECTOR('',#279,4.9);
#56=VECTOR('',#308,7.01736308471803);
#57=VECTOR('',#325,1.22925);
#58=VECTOR('',#334,2.60425);
#59=VECTOR('',#341,2.4585);
#60=VECTOR('',#348,4.775);
#61=CIRCLE('',#239,4.9);
#62=CIRCLE('',#240,4.9);
#63=CIRCLE('',#241,4.9);
#64=CIRCLE('',#242,4.9);
#65=CIRCLE('',#244,6.254393159906);
#66=CIRCLE('',#245,6.254393159906);
#67=CIRCLE('',#246,0.500000000000001);
#68=CIRCLE('',#247,5.75819703714082);
#69=CIRCLE('',#248,5.75819703714082);
#70=CIRCLE('',#249,6.254393159906);
#71=CIRCLE('',#251,7.78033300953006);
#72=CIRCLE('',#252,7.78033300953006);
#73=CIRCLE('',#253,7.78033300953006);
#74=CIRCLE('',#255,7.28413688676488);
#75=CIRCLE('',#256,7.28413688676488);
#76=CIRCLE('',#257,0.499999999999999);
#77=CIRCLE('',#261,2.4585);
#78=CIRCLE('',#262,2.4585);
#79=CIRCLE('',#264,2.75);
#80=CIRCLE('',#265,2.75);
#81=CIRCLE('',#266,2.4585);
#82=CIRCLE('',#267,2.4585);
#83=CIRCLE('',#270,4.65);
#84=CIRCLE('',#271,4.65);
#85=VERTEX_POINT('',#353);
#86=VERTEX_POINT('',#355);
#87=VERTEX_POINT('',#357);
#88=VERTEX_POINT('',#359);
#89=VERTEX_POINT('',#363);
#90=VERTEX_POINT('',#364);
#91=VERTEX_POINT('',#366);
#92=VERTEX_POINT('',#368);
#93=VERTEX_POINT('',#370);
#94=VERTEX_POINT('',#375);
#95=VERTEX_POINT('',#376);
#96=VERTEX_POINT('',#378);
#97=VERTEX_POINT('',#383);
#98=VERTEX_POINT('',#384);
#99=VERTEX_POINT('',#391);
#100=VERTEX_POINT('',#392);
#101=VERTEX_POINT('',#394);
#102=VERTEX_POINT('',#398);
#103=VERTEX_POINT('',#399);
#104=VERTEX_POINT('',#402);
#105=VERTEX_POINT('',#404);
#106=VERTEX_POINT('',#410);
#107=VERTEX_POINT('',#411);
#108=EDGE_CURVE('',#85,#85,#61,.T.);
#109=EDGE_CURVE('',#85,#86,#49,.T.);
#110=EDGE_CURVE('',#87,#86,#62,.T.);
#111=EDGE_CURVE('',#88,#87,#63,.T.);
#112=EDGE_CURVE('',#86,#88,#64,.T.);
#113=EDGE_CURVE('',#89,#90,#65,.T.);
#114=EDGE_CURVE('',#91,#89,#66,.T.);
#115=EDGE_CURVE('',#91,#92,#67,.T.);
#116=EDGE_CURVE('',#92,#93,#68,.T.);
#117=EDGE_CURVE('',#93,#92,#69,.T.);
#118=EDGE_CURVE('',#90,#91,#70,.T.);
#119=EDGE_CURVE('',#94,#95,#71,.T.);
#120=EDGE_CURVE('',#96,#94,#72,.T.);
#121=EDGE_CURVE('',#95,#96,#73,.T.);
#122=EDGE_CURVE('',#95,#90,#50,.T.);
#123=EDGE_CURVE('',#97,#98,#74,.T.);
#124=EDGE_CURVE('',#98,#97,#75,.T.);
#125=EDGE_CURVE('',#98,#96,#76,.T.);
#126=EDGE_CURVE('',#99,#100,#77,.T.);
#127=EDGE_CURVE('',#100,#101,#51,.T.);
#128=EDGE_CURVE('',#100,#99,#78,.T.);
#129=EDGE_CURVE('',#102,#103,#79,.T.);
#130=EDGE_CURVE('',#103,#102,#80,.T.);
#131=EDGE_CURVE('',#103,#104,#52,.T.);
#132=EDGE_CURVE('',#105,#104,#81,.T.);
#133=EDGE_CURVE('',#104,#105,#82,.T.);
#134=EDGE_CURVE('',#104,#100,#53,.T.);
#135=EDGE_CURVE('',#106,#107,#83,.T.);
#136=EDGE_CURVE('',#107,#106,#84,.T.);
#137=EDGE_CURVE('',#107,#87,#54,.T.);
#138=ORIENTED_EDGE('',*,*,#108,.F.);
#139=ORIENTED_EDGE('',*,*,#109,.T.);
#140=ORIENTED_EDGE('',*,*,#110,.F.);
#141=ORIENTED_EDGE('',*,*,#111,.F.);
#142=ORIENTED_EDGE('',*,*,#112,.F.);
#143=ORIENTED_EDGE('',*,*,#109,.F.);
#144=ORIENTED_EDGE('',*,*,#113,.F.);
#145=ORIENTED_EDGE('',*,*,#114,.F.);
#146=ORIENTED_EDGE('',*,*,#115,.T.);
#147=ORIENTED_EDGE('',*,*,#116,.T.);
#148=ORIENTED_EDGE('',*,*,#117,.T.);
#149=ORIENTED_EDGE('',*,*,#115,.F.);
#150=ORIENTED_EDGE('',*,*,#118,.F.);
#151=ORIENTED_EDGE('',*,*,#119,.F.);
#152=ORIENTED_EDGE('',*,*,#120,.F.);
#153=ORIENTED_EDGE('',*,*,#121,.F.);
#154=ORIENTED_EDGE('',*,*,#122,.T.);
#155=ORIENTED_EDGE('',*,*,#118,.T.);
#156=ORIENTED_EDGE('',*,*,#114,.T.);
#157=ORIENTED_EDGE('',*,*,#113,.T.);
#158=ORIENTED_EDGE('',*,*,#122,.F.);
#159=ORIENTED_EDGE('',*,*,#123,.F.);
#160=ORIENTED_EDGE('',*,*,#124,.F.);
#161=ORIENTED_EDGE('',*,*,#125,.T.);
#162=ORIENTED_EDGE('',*,*,#120,.T.);
#163=ORIENTED_EDGE('',*,*,#119,.T.);
#164=ORIENTED_EDGE('',*,*,#121,.T.);
#165=ORIENTED_EDGE('',*,*,#125,.F.);
#166=ORIENTED_EDGE('',*,*,#123,.T.);
#167=ORIENTED_EDGE('',*,*,#124,.T.);
#168=ORIENTED_EDGE('',*,*,#108,.T.);
#169=ORIENTED_EDGE('',*,*,#117,.F.);
#170=ORIENTED_EDGE('',*,*,#116,.F.);
#171=ORIENTED_EDGE('',*,*,#126,.T.);
#172=ORIENTED_EDGE('',*,*,#127,.T.);
#173=ORIENTED_EDGE('',*,*,#127,.F.);
#174=ORIENTED_EDGE('',*,*,#128,.T.);
#175=ORIENTED_EDGE('',*,*,#129,.F.);
#176=ORIENTED_EDGE('',*,*,#130,.F.);
#177=ORIENTED_EDGE('',*,*,#131,.T.);
#178=ORIENTED_EDGE('',*,*,#132,.F.);
#179=ORIENTED_EDGE('',*,*,#133,.F.);
#180=ORIENTED_EDGE('',*,*,#131,.F.);
#181=ORIENTED_EDGE('',*,*,#132,.T.);
#182=ORIENTED_EDGE('',*,*,#134,.T.);
#183=ORIENTED_EDGE('',*,*,#126,.F.);
#184=ORIENTED_EDGE('',*,*,#128,.F.);
#185=ORIENTED_EDGE('',*,*,#134,.F.);
#186=ORIENTED_EDGE('',*,*,#133,.T.);
#187=ORIENTED_EDGE('',*,*,#135,.F.);
#188=ORIENTED_EDGE('',*,*,#136,.F.);
#189=ORIENTED_EDGE('',*,*,#137,.T.);
#190=ORIENTED_EDGE('',*,*,#110,.T.);
#191=ORIENTED_EDGE('',*,*,#112,.T.);
#192=ORIENTED_EDGE('',*,*,#111,.T.);
#193=ORIENTED_EDGE('',*,*,#137,.F.);
#194=ORIENTED_EDGE('',*,*,#135,.T.);
#195=ORIENTED_EDGE('',*,*,#136,.T.);
#196=ORIENTED_EDGE('',*,*,#129,.T.);
#197=ORIENTED_EDGE('',*,*,#130,.T.);
#198=CYLINDRICAL_SURFACE('',#238,4.9);
#199=CYLINDRICAL_SURFACE('',#268,2.4585);
#200=STYLED_ITEM('',(#436),#207);
#201=STYLED_ITEM('',(#436),#208);
#202=STYLED_ITEM('',(#436),#209);
#203=STYLED_ITEM('',(#436),#210);
#204=STYLED_ITEM('',(#436),#211);
#205=STYLED_ITEM('',(#436),#212);
#206=STYLED_ITEM('',(#435),#13);
#207=ADVANCED_FACE('',(#25),#198,.F.);
#208=ADVANCED_FACE('',(#26),#23,.T.);
#209=ADVANCED_FACE('',(#27),#19,.T.);
#210=ADVANCED_FACE('',(#28),#24,.T.);
#211=ADVANCED_FACE('',(#29,#14),#16,.T.);
#212=ADVANCED_FACE('',(#30),#17,.T.);
#213=ADVANCED_FACE('',(#31),#20,.F.);
#214=ADVANCED_FACE('',(#32),#21,.F.);
#215=ADVANCED_FACE('',(#33),#199,.F.);
#216=ADVANCED_FACE('',(#34),#22,.T.);
#217=ADVANCED_FACE('',(#35,#15),#18,.T.);
#218=CLOSED_SHELL('',(#207,#208,#209,#210,#211,#212,#213,#214,#215,#216,
#217));
#219=DERIVED_UNIT_ELEMENT(#221,1.);
#220=DERIVED_UNIT_ELEMENT(#421,3.);
#221=(
MASS_UNIT()
NAMED_UNIT(*)
SI_UNIT($,.GRAM.)
);
#222=DERIVED_UNIT((#219,#220));
#223=MEASURE_REPRESENTATION_ITEM('density measure',
POSITIVE_RATIO_MEASURE(1.),#222);
#224=PROPERTY_DEFINITION_REPRESENTATION(#229,#226);
#225=PROPERTY_DEFINITION_REPRESENTATION(#230,#227);
#226=REPRESENTATION('material name',(#228),#418);
#227=REPRESENTATION('density',(#223),#418);
#228=DESCRIPTIVE_REPRESENTATION_ITEM('Generic','Generic');
#229=PROPERTY_DEFINITION('material property','material name',#428);
#230=PROPERTY_DEFINITION('material property','density of part',#428);
#231=DATE_TIME_ROLE('creation_date');
#232=APPLIED_DATE_AND_TIME_ASSIGNMENT(#233,#231,(#428));
#233=DATE_AND_TIME(#234,#235);
#234=CALENDAR_DATE(2021,14,10);
#235=LOCAL_TIME(0,0,0.,#236);
#236=COORDINATED_UNIVERSAL_TIME_OFFSET(0,0,.BEHIND.);
#237=AXIS2_PLACEMENT_3D('placement',#351,#273,#274);
#238=AXIS2_PLACEMENT_3D('',#352,#275,#276);
#239=AXIS2_PLACEMENT_3D('',#354,#277,#278);
#240=AXIS2_PLACEMENT_3D('',#358,#280,#281);
#241=AXIS2_PLACEMENT_3D('',#360,#282,#283);
#242=AXIS2_PLACEMENT_3D('',#361,#284,#285);
#243=AXIS2_PLACEMENT_3D('',#362,#286,#287);
#244=AXIS2_PLACEMENT_3D('',#365,#288,#289);
#245=AXIS2_PLACEMENT_3D('',#367,#290,#291);
#246=AXIS2_PLACEMENT_3D('',#369,#292,#293);
#247=AXIS2_PLACEMENT_3D('',#371,#294,#295);
#248=AXIS2_PLACEMENT_3D('',#372,#296,#297);
#249=AXIS2_PLACEMENT_3D('',#373,#298,#299);
#250=AXIS2_PLACEMENT_3D('',#374,#300,#301);
#251=AXIS2_PLACEMENT_3D('',#377,#302,#303);
#252=AXIS2_PLACEMENT_3D('',#379,#304,#305);
#253=AXIS2_PLACEMENT_3D('',#380,#306,#307);
#254=AXIS2_PLACEMENT_3D('',#382,#309,#310);
#255=AXIS2_PLACEMENT_3D('',#385,#311,#312);
#256=AXIS2_PLACEMENT_3D('',#386,#313,#314);
#257=AXIS2_PLACEMENT_3D('',#387,#315,#316);
#258=AXIS2_PLACEMENT_3D('',#388,#317,#318);
#259=AXIS2_PLACEMENT_3D('',#389,#319,#320);
#260=AXIS2_PLACEMENT_3D('',#390,#321,#322);
#261=AXIS2_PLACEMENT_3D('',#393,#323,#324);
#262=AXIS2_PLACEMENT_3D('',#396,#326,#327);
#263=AXIS2_PLACEMENT_3D('',#397,#328,#329);
#264=AXIS2_PLACEMENT_3D('',#400,#330,#331);
#265=AXIS2_PLACEMENT_3D('',#401,#332,#333);
#266=AXIS2_PLACEMENT_3D('',#405,#335,#336);
#267=AXIS2_PLACEMENT_3D('',#406,#337,#338);
#268=AXIS2_PLACEMENT_3D('',#407,#339,#340);
#269=AXIS2_PLACEMENT_3D('',#409,#342,#343);
#270=AXIS2_PLACEMENT_3D('',#412,#344,#345);
#271=AXIS2_PLACEMENT_3D('',#413,#346,#347);
#272=AXIS2_PLACEMENT_3D('',#415,#349,#350);
#273=DIRECTION('axis',(0.,0.,1.));
#274=DIRECTION('refdir',(1.,0.,0.));
#275=DIRECTION('center_axis',(0.,-1.,0.));
#276=DIRECTION('ref_axis',(-1.,0.,0.));
#277=DIRECTION('center_axis',(0.,-1.,0.));
#278=DIRECTION('ref_axis',(-1.,0.,0.));
#279=DIRECTION('',(0.,-1.,0.));
#280=DIRECTION('center_axis',(-8.1311768046176E-17,1.,4.35156008142389E-17));
#281=DIRECTION('ref_axis',(0.242188931813106,6.19129127932509E-17,-0.970229107637586));
#282=DIRECTION('center_axis',(-8.1311768046176E-17,1.,4.35156008142389E-17));
#283=DIRECTION('ref_axis',(0.242188931813106,6.19129127932509E-17,-0.970229107637586));
#284=DIRECTION('center_axis',(-8.1311768046176E-17,1.,4.35156008142389E-17));
#285=DIRECTION('ref_axis',(0.242188931813106,6.19129127932509E-17,-0.970229107637586));
#286=DIRECTION('center_axis',(0.,1.,0.));
#287=DIRECTION('ref_axis',(0.,0.,1.));
#288=DIRECTION('center_axis',(0.,1.,0.));
#289=DIRECTION('ref_axis',(1.,0.,0.));
#290=DIRECTION('center_axis',(0.,1.,0.));
#291=DIRECTION('ref_axis',(1.,0.,0.));
#292=DIRECTION('center_axis',(-1.,0.,1.21964573007199E-16));
#293=DIRECTION('ref_axis',(-1.21964573007199E-16,0.,-1.));
#294=DIRECTION('center_axis',(0.,1.,0.));
#295=DIRECTION('ref_axis',(1.,0.,0.));
#296=DIRECTION('center_axis',(0.,1.,0.));
#297=DIRECTION('ref_axis',(1.,0.,0.));
#298=DIRECTION('center_axis',(0.,1.,0.));
#299=DIRECTION('ref_axis',(1.,0.,0.));
#300=DIRECTION('center_axis',(0.,1.,0.));
#301=DIRECTION('ref_axis',(-1.,0.,0.));
#302=DIRECTION('center_axis',(0.,1.,0.));
#303=DIRECTION('ref_axis',(1.,0.,0.));
#304=DIRECTION('center_axis',(0.,1.,0.));
#305=DIRECTION('ref_axis',(1.,0.,0.));
#306=DIRECTION('center_axis',(0.,1.,0.));
#307=DIRECTION('ref_axis',(1.,0.,0.));
#308=DIRECTION('',(-0.123116331212414,-0.992392245530362,1.50774020942048E-17));
#309=DIRECTION('center_axis',(0.,1.,0.));
#310=DIRECTION('ref_axis',(0.,0.,1.));
#311=DIRECTION('center_axis',(0.,1.,0.));
#312=DIRECTION('ref_axis',(1.,0.,0.));
#313=DIRECTION('center_axis',(0.,1.,0.));
#314=DIRECTION('ref_axis',(1.,0.,0.));
#315=DIRECTION('center_axis',(-1.,0.,1.24798055414304E-16));
#316=DIRECTION('ref_axis',(-1.24798055414304E-16,0.,-1.));
#317=DIRECTION('center_axis',(0.,1.,0.));
#318=DIRECTION('ref_axis',(0.,0.,1.));
#319=DIRECTION('center_axis',(0.,-1.,0.));
#320=DIRECTION('ref_axis',(0.,0.,-1.));
#321=DIRECTION('center_axis',(-8.1311768046176E-17,1.,4.35156008142389E-17));
#322=DIRECTION('ref_axis',(0.242188931813106,6.19129127932509E-17,-0.970229107637586));
#323=DIRECTION('center_axis',(-8.1311768046176E-17,1.,4.35156008142389E-17));
#324=DIRECTION('ref_axis',(0.242188931813106,6.19129127932509E-17,-0.970229107637586));
#325=DIRECTION('',(0.207596432942168,-0.515038074910054,-0.831648665256329));
#326=DIRECTION('center_axis',(-8.1311768046176E-17,1.,4.35156008142389E-17));
#327=DIRECTION('ref_axis',(0.242188931813106,6.19129127932509E-17,-0.970229107637586));
#328=DIRECTION('center_axis',(-8.1311768046176E-17,1.,4.35156008142389E-17));
#329=DIRECTION('ref_axis',(0.242188931813106,6.19129127932509E-17,-0.970229107637586));
#330=DIRECTION('center_axis',(8.1311768046176E-17,-1.,-4.35156008142389E-17));
#331=DIRECTION('ref_axis',(0.242188931813106,6.19129127932509E-17,-0.970229107637586));
#332=DIRECTION('center_axis',(8.1311768046176E-17,-1.,-4.35156008142389E-17));
#333=DIRECTION('ref_axis',(0.242188931813106,6.19129127932509E-17,-0.970229107637586));
#334=DIRECTION('',(0.171253436013373,-0.707106781186548,-0.68605558131511));
#335=DIRECTION('center_axis',(-8.1311768046176E-17,1.,4.35156008142389E-17));
#336=DIRECTION('ref_axis',(0.242188931813106,6.19129127932509E-17,-0.970229107637586));
#337=DIRECTION('center_axis',(-8.1311768046176E-17,1.,4.35156008142389E-17));
#338=DIRECTION('ref_axis',(0.242188931813106,6.19129127932509E-17,-0.970229107637586));
#339=DIRECTION('center_axis',(-8.1311768046176E-17,1.,4.35156008142389E-17));
#340=DIRECTION('ref_axis',(0.242188931813106,6.19129127932509E-17,-0.970229107637586));
#341=DIRECTION('',(8.1311768046176E-17,-1.,-4.35156008142389E-17));
#342=DIRECTION('center_axis',(8.1311768046176E-17,-1.,-4.35156008142389E-17));
#343=DIRECTION('ref_axis',(0.242188931813106,6.19129127932509E-17,-0.970229107637586));
#344=DIRECTION('center_axis',(-8.1311768046176E-17,1.,4.35156008142389E-17));
#345=DIRECTION('ref_axis',(0.242188931813106,6.19129127932509E-17,-0.970229107637586));
#346=DIRECTION('center_axis',(-8.1311768046176E-17,1.,4.35156008142389E-17));
#347=DIRECTION('ref_axis',(0.242188931813106,6.19129127932509E-17,-0.970229107637586));
#348=DIRECTION('',(-0.171253436013373,-0.707106781186547,0.68605558131511));
#349=DIRECTION('center_axis',(-8.1311768046176E-17,1.,4.35156008142389E-17));
#350=DIRECTION('ref_axis',(0.970229107637586,6.83520472734697E-17,0.242188931813106));
#351=CARTESIAN_POINT('',(0.,0.,0.));
#352=CARTESIAN_POINT('Origin',(0.427511377423424,13.6794975487877,7.43212632244767));
#353=CARTESIAN_POINT('',(5.32751137742342,13.6794975487877,7.43212632244767));
#354=CARTESIAN_POINT('Origin',(0.427511377423424,13.6794975487877,7.43212632244767));
#355=CARTESIAN_POINT('',(5.32751137742342,13.4294975487877,7.43212632244767));
#356=CARTESIAN_POINT('',(5.32751137742342,13.6794975487877,7.43212632244767));
#357=CARTESIAN_POINT('',(-0.759214388460793,13.4294975487877,12.1862489498718));
#358=CARTESIAN_POINT('Origin',(0.427511377423424,13.4294975487877,7.43212632244767));
#359=CARTESIAN_POINT('',(1.61423714330764,13.4294975487877,2.6780036950235));
#360=CARTESIAN_POINT('Origin',(0.427511377423424,13.4294975487877,7.43212632244767));
#361=CARTESIAN_POINT('Origin',(0.427511377423424,13.4294975487877,7.43212632244767));
#362=CARTESIAN_POINT('Origin',(0.427511377423424,0.879497548787663,7.43212632244767));
#363=CARTESIAN_POINT('',(-5.82688178248257,0.817939383181456,7.43212632244767));
#364=CARTESIAN_POINT('',(6.68190453732942,0.817939383181455,7.43212632244767));
#365=CARTESIAN_POINT('Origin',(0.427511377423424,0.817939383181456,7.43212632244767));
#366=CARTESIAN_POINT('',(0.427511377423423,0.817939383181456,1.17773316254167));
#367=CARTESIAN_POINT('Origin',(0.427511377423424,0.817939383181456,7.43212632244767));
#368=CARTESIAN_POINT('',(0.427511377423423,0.379497548787663,1.67392928530685));
#369=CARTESIAN_POINT('Origin',(0.427511377423423,0.879497548787663,1.67392928530685));
#370=CARTESIAN_POINT('',(-5.33068565971739,0.379497548787663,7.43212632244767));
#371=CARTESIAN_POINT('Origin',(0.427511377423424,0.379497548787663,7.43212632244767));
#372=CARTESIAN_POINT('Origin',(0.427511377423424,0.379497548787663,7.43212632244767));
#373=CARTESIAN_POINT('Origin',(0.427511377423424,0.817939383181456,7.43212632244767));
#374=CARTESIAN_POINT('Origin',(0.427511377423424,6.96793938318146,7.43212632244767));
#375=CARTESIAN_POINT('',(-7.35282163210664,13.1179393831815,7.43212632244767));
#376=CARTESIAN_POINT('',(8.20784438695349,13.1179393831815,7.43212632244767));
#377=CARTESIAN_POINT('Origin',(0.427511377423424,13.1179393831815,7.43212632244767));
#378=CARTESIAN_POINT('',(0.427511377423423,13.1179393831815,-0.348206687082393));
#379=CARTESIAN_POINT('Origin',(0.427511377423424,13.1179393831815,7.43212632244767));
#380=CARTESIAN_POINT('Origin',(0.427511377423424,13.1179393831815,7.43212632244767));
#381=CARTESIAN_POINT('',(7.44487446214146,6.96793938318146,7.43212632244767));
#382=CARTESIAN_POINT('Origin',(0.427511377423424,13.1794975487877,7.43212632244767));
#383=CARTESIAN_POINT('',(-6.85662550934146,13.6794975487877,7.43212632244767));
#384=CARTESIAN_POINT('',(0.427511377423423,13.6794975487877,0.147989435682788));
#385=CARTESIAN_POINT('Origin',(0.427511377423424,13.6794975487877,7.43212632244767));
#386=CARTESIAN_POINT('Origin',(0.427511377423424,13.6794975487877,7.43212632244767));
#387=CARTESIAN_POINT('Origin',(0.427511377423423,13.1794975487877,0.147989435682788));
#388=CARTESIAN_POINT('Origin',(0.427511377423424,13.6794975487877,7.43212632244767));
#389=CARTESIAN_POINT('Origin',(-5.33068565971739,0.379497548787663,7.43212632244767));
#390=CARTESIAN_POINT('Origin',(0.427511377423425,4.94088963284804,7.43212632244767));
#391=CARTESIAN_POINT('',(1.02293286628595,5.67949754878766,5.04681806132066));
#392=CARTESIAN_POINT('',(-0.167910111439096,5.67949754878766,9.81743458357468));
#393=CARTESIAN_POINT('Origin',(0.427511377423425,5.67949754878766,7.43212632244767));
#394=CARTESIAN_POINT('',(0.427511377423425,4.20228171690841,7.43212632244767));
#395=CARTESIAN_POINT('',(0.129800632992165,4.94088963284804,8.62478045301117));
#396=CARTESIAN_POINT('Origin',(0.427511377423425,5.67949754878766,7.43212632244767));
#397=CARTESIAN_POINT('Origin',(0.427511377423424,13.5337475487877,7.43212632244767));
#398=CARTESIAN_POINT('',(1.09353093990946,13.6794975487877,4.76399627644431));
#399=CARTESIAN_POINT('',(-0.238508185062616,13.6794975487877,10.100256368451));
#400=CARTESIAN_POINT('Origin',(0.427511377423424,13.6794975487877,7.43212632244767));
#401=CARTESIAN_POINT('Origin',(0.427511377423424,13.6794975487877,7.43212632244767));
#402=CARTESIAN_POINT('',(-0.167910111439096,13.3879975487877,9.81743458357468));
#403=CARTESIAN_POINT('',(-0.203209148250856,13.5337475487877,9.95884547601285));
#404=CARTESIAN_POINT('',(1.02293286628594,13.3879975487877,5.04681806132066));
#405=CARTESIAN_POINT('Origin',(0.427511377423424,13.3879975487877,7.43212632244767));
#406=CARTESIAN_POINT('Origin',(0.427511377423424,13.3879975487877,7.43212632244767));
#407=CARTESIAN_POINT('Origin',(0.427511377423424,9.67949754878766,7.43212632244767));
#408=CARTESIAN_POINT('',(-0.167910111439096,9.67949754878766,9.81743458357468));
#409=CARTESIAN_POINT('Origin',(0.427511377423424,13.5544975487877,7.43212632244767));
#410=CARTESIAN_POINT('',(1.55368991035437,13.6794975487877,2.92056097193289));
#411=CARTESIAN_POINT('',(-0.698667155507517,13.6794975487877,11.9436916729624));
#412=CARTESIAN_POINT('Origin',(0.427511377423424,13.6794975487877,7.43212632244767));
#413=CARTESIAN_POINT('Origin',(0.427511377423424,13.6794975487877,7.43212632244767));
#414=CARTESIAN_POINT('',(-0.728940771984155,13.5544975487877,12.0649703114171));
#415=CARTESIAN_POINT('Origin',(0.990600643888895,13.6794975487877,5.17634364719028));
#416=UNCERTAINTY_MEASURE_WITH_UNIT(LENGTH_MEASURE(0.01),#420,
'DISTANCE_ACCURACY_VALUE',
'Maximum model space distance between geometric entities at asserted c
onnectivities');
#417=UNCERTAINTY_MEASURE_WITH_UNIT(LENGTH_MEASURE(0.01),#420,
'DISTANCE_ACCURACY_VALUE',
'Maximum model space distance between geometric entities at asserted c
onnectivities');
#418=(
GEOMETRIC_REPRESENTATION_CONTEXT(3)
GLOBAL_UNCERTAINTY_ASSIGNED_CONTEXT((#416))
GLOBAL_UNIT_ASSIGNED_CONTEXT((#420,#422,#423))
REPRESENTATION_CONTEXT('','3D')
);
#419=(
GEOMETRIC_REPRESENTATION_CONTEXT(3)
GLOBAL_UNCERTAINTY_ASSIGNED_CONTEXT((#417))
GLOBAL_UNIT_ASSIGNED_CONTEXT((#420,#422,#423))
REPRESENTATION_CONTEXT('','3D')
);
#420=(
LENGTH_UNIT()
NAMED_UNIT(*)
SI_UNIT(.MILLI.,.METRE.)
);
#421=(
LENGTH_UNIT()
NAMED_UNIT(*)
SI_UNIT(.CENTI.,.METRE.)
);
#422=(
NAMED_UNIT(*)
PLANE_ANGLE_UNIT()
SI_UNIT($,.RADIAN.)
);
#423=(
NAMED_UNIT(*)
SI_UNIT($,.STERADIAN.)
SOLID_ANGLE_UNIT()
);
#424=SHAPE_DEFINITION_REPRESENTATION(#425,#426);
#425=PRODUCT_DEFINITION_SHAPE('',$,#428);
#426=SHAPE_REPRESENTATION('',(#237),#418);
#427=PRODUCT_DEFINITION_CONTEXT('part definition',#432,'design');
#428=PRODUCT_DEFINITION('NM6 Simplified','NM6 Simplified',#429,#427);
#429=PRODUCT_DEFINITION_FORMATION('',$,#434);
#430=PRODUCT_RELATED_PRODUCT_CATEGORY('NM6 Simplified','NM6 Simplified',
(#434));
#431=APPLICATION_PROTOCOL_DEFINITION('international standard',
'automotive_design',2009,#432);
#432=APPLICATION_CONTEXT(
'Core Data for Automotive Mechanical Design Process');
#433=PRODUCT_CONTEXT('part definition',#432,'mechanical');
#434=PRODUCT('NM6 Simplified','NM6 Simplified',$,(#433));
#435=PRESENTATION_STYLE_ASSIGNMENT((#437));
#436=PRESENTATION_STYLE_ASSIGNMENT((#438));
#437=SURFACE_STYLE_USAGE(.BOTH.,#443);
#438=SURFACE_STYLE_USAGE(.BOTH.,#444);
#439=SURFACE_STYLE_RENDERING_WITH_PROPERTIES($,#451,(#441));
#440=SURFACE_STYLE_RENDERING_WITH_PROPERTIES($,#452,(#442));
#441=SURFACE_STYLE_TRANSPARENT(0.);
#442=SURFACE_STYLE_TRANSPARENT(0.);
#443=SURFACE_SIDE_STYLE('',(#445,#439));
#444=SURFACE_SIDE_STYLE('',(#446,#440));
#445=SURFACE_STYLE_FILL_AREA(#447);
#446=SURFACE_STYLE_FILL_AREA(#448);
#447=FILL_AREA_STYLE('',(#449));
#448=FILL_AREA_STYLE('',(#450));
#449=FILL_AREA_STYLE_COLOUR('',#451);
#450=FILL_AREA_STYLE_COLOUR('',#452);
#451=COLOUR_RGB('',0.749019607843137,0.749019607843137,0.749019607843137);
#452=COLOUR_RGB('',0.250980392156863,0.250980392156863,0.250980392156863);
ENDSEC;
END-ISO-10303-21;
