ISO-10303-21;
HEADER;
/* Generated by software containing ST-Developer
 * from STEP Tools, Inc. (www.steptools.com) 
 */

FILE_DESCRIPTION(
/* description */ (''),
/* implementation_level */ '2;1');

FILE_NAME(
/* name */ 'C:\\TEMP\\NM8 Simplified.stp',
/* time_stamp */ '2021-10-14T15:43:40+01:00',
/* author */ ('Sandfield Engineering'),
/* organization */ ('Sandfield Engineering'),
/* preprocessor_version */ 'ST-DEVELOPER v18.1',
/* originating_system */ 'Autodesk Inventor 2021',
/* authorisation */ '');

FILE_SCHEMA (('AUTOMOTIVE_DESIGN { 1 0 10303 214 3 1 1 }'));
ENDSEC;

DATA;
#10=MECHANICAL_DESIGN_GEOMETRIC_PRESENTATION_REPRESENTATION('',(#16,#17,
#18,#19,#20,#21,#22),#419);
#11=SHAPE_REPRESENTATION_RELATIONSHIP('SRR','None',#426,#12);
#12=ADVANCED_BREP_SHAPE_REPRESENTATION('',(#13),#418);
#13=MANIFOLD_SOLID_BREP('Solid1',#218);
#14=TOROIDAL_SURFACE('',#256,9.20505489020833,0.5);
#15=TOROIDAL_SURFACE('',#268,7.30747913263257,0.5);
#16=STYLED_ITEM('',(#436),#212);
#17=STYLED_ITEM('',(#436),#213);
#18=STYLED_ITEM('',(#436),#214);
#19=STYLED_ITEM('',(#436),#215);
#20=STYLED_ITEM('',(#436),#216);
#21=STYLED_ITEM('',(#436),#217);
#22=STYLED_ITEM('',(#435),#13);
#23=FACE_BOUND('',#46,.T.);
#24=FACE_BOUND('',#51,.T.);
#25=PLANE('',#253);
#26=PLANE('',#267);
#27=PLANE('',#272);
#28=CYLINDRICAL_SURFACE('',#246,3.3235);
#29=CYLINDRICAL_SURFACE('',#254,6.5);
#30=FACE_OUTER_BOUND('',#41,.T.);
#31=FACE_OUTER_BOUND('',#42,.T.);
#32=FACE_OUTER_BOUND('',#43,.T.);
#33=FACE_OUTER_BOUND('',#44,.T.);
#34=FACE_OUTER_BOUND('',#45,.T.);
#35=FACE_OUTER_BOUND('',#47,.T.);
#36=FACE_OUTER_BOUND('',#48,.T.);
#37=FACE_OUTER_BOUND('',#49,.T.);
#38=FACE_OUTER_BOUND('',#50,.T.);
#39=FACE_OUTER_BOUND('',#52,.T.);
#40=FACE_OUTER_BOUND('',#53,.T.);
#41=EDGE_LOOP('',(#143,#144,#145,#146));
#42=EDGE_LOOP('',(#147,#148,#149,#150,#151,#152));
#43=EDGE_LOOP('',(#153,#154,#155,#156,#157,#158));
#44=EDGE_LOOP('',(#159,#160,#161,#162,#163,#164,#165));
#45=EDGE_LOOP('',(#166,#167));
#46=EDGE_LOOP('',(#168,#169));
#47=EDGE_LOOP('',(#170,#171,#172,#173,#174,#175));
#48=EDGE_LOOP('',(#176,#177,#178,#179,#180,#181,#182));
#49=EDGE_LOOP('',(#183,#184,#185,#186,#187,#188,#189,#190));
#50=EDGE_LOOP('',(#191,#192));
#51=EDGE_LOOP('',(#193));
#52=EDGE_LOOP('',(#194,#195,#196,#197,#198,#199,#200));
#53=EDGE_LOOP('',(#201,#202));
#54=LINE('',#357,#60);
#55=LINE('',#365,#61);
#56=LINE('',#370,#62);
#57=LINE('',#377,#63);
#58=LINE('',#387,#64);
#59=LINE('',#402,#65);
#60=VECTOR('',#279,1.66175);
#61=VECTOR('',#288,3.48675);
#62=VECTOR('',#295,3.3235);
#63=VECTOR('',#302,6.25);
#64=VECTOR('',#315,6.5);
#65=VECTOR('',#332,8.76);
#66=CIRCLE('',#239,3.3235);
#67=CIRCLE('',#240,3.3235);
#68=CIRCLE('',#242,3.65);
#69=CIRCLE('',#243,3.65);
#70=CIRCLE('',#244,3.3235);
#71=CIRCLE('',#245,3.3235);
#72=CIRCLE('',#248,6.);
#73=CIRCLE('',#249,6.);
#74=CIRCLE('',#250,6.5);
#75=CIRCLE('',#251,6.5);
#76=CIRCLE('',#252,6.5);
#77=CIRCLE('',#255,6.5);
#78=CIRCLE('',#257,9.20505489020833);
#79=CIRCLE('',#258,0.5);
#80=CIRCLE('',#259,9.70134956549843);
#81=CIRCLE('',#260,9.70134956549843);
#82=CIRCLE('',#261,9.70134956549843);
#83=CIRCLE('',#262,9.20505489020833);
#84=CIRCLE('',#264,7.80377380792267);
#85=CIRCLE('',#265,7.80377380792267);
#86=CIRCLE('',#266,7.80377380792267);
#87=CIRCLE('',#269,0.5);
#88=CIRCLE('',#270,7.30747913263257);
#89=CIRCLE('',#271,7.30747913263257);
#90=VERTEX_POINT('',#353);
#91=VERTEX_POINT('',#354);
#92=VERTEX_POINT('',#356);
#93=VERTEX_POINT('',#360);
#94=VERTEX_POINT('',#361);
#95=VERTEX_POINT('',#364);
#96=VERTEX_POINT('',#366);
#97=VERTEX_POINT('',#372);
#98=VERTEX_POINT('',#373);
#99=VERTEX_POINT('',#376);
#100=VERTEX_POINT('',#378);
#101=VERTEX_POINT('',#380);
#102=VERTEX_POINT('',#385);
#103=VERTEX_POINT('',#389);
#104=VERTEX_POINT('',#390);
#105=VERTEX_POINT('',#392);
#106=VERTEX_POINT('',#394);
#107=VERTEX_POINT('',#396);
#108=VERTEX_POINT('',#401);
#109=VERTEX_POINT('',#403);
#110=VERTEX_POINT('',#405);
#111=VERTEX_POINT('',#410);
#112=VERTEX_POINT('',#412);
#113=EDGE_CURVE('',#90,#91,#66,.T.);
#114=EDGE_CURVE('',#91,#92,#54,.T.);
#115=EDGE_CURVE('',#91,#90,#67,.T.);
#116=EDGE_CURVE('',#93,#94,#68,.T.);
#117=EDGE_CURVE('',#94,#93,#69,.T.);
#118=EDGE_CURVE('',#94,#95,#55,.T.);
#119=EDGE_CURVE('',#96,#95,#70,.T.);
#120=EDGE_CURVE('',#95,#96,#71,.T.);
#121=EDGE_CURVE('',#95,#91,#56,.T.);
#122=EDGE_CURVE('',#97,#98,#72,.T.);
#123=EDGE_CURVE('',#98,#97,#73,.T.);
#124=EDGE_CURVE('',#98,#99,#57,.T.);
#125=EDGE_CURVE('',#100,#99,#74,.T.);
#126=EDGE_CURVE('',#101,#100,#75,.T.);
#127=EDGE_CURVE('',#99,#101,#76,.T.);
#128=EDGE_CURVE('',#102,#102,#77,.T.);
#129=EDGE_CURVE('',#102,#101,#58,.T.);
#130=EDGE_CURVE('',#103,#104,#78,.T.);
#131=EDGE_CURVE('',#104,#105,#79,.T.);
#132=EDGE_CURVE('',#105,#106,#80,.T.);
#133=EDGE_CURVE('',#106,#107,#81,.T.);
#134=EDGE_CURVE('',#107,#105,#82,.T.);
#135=EDGE_CURVE('',#104,#103,#83,.T.);
#136=EDGE_CURVE('',#107,#108,#59,.T.);
#137=EDGE_CURVE('',#109,#108,#84,.T.);
#138=EDGE_CURVE('',#110,#109,#85,.T.);
#139=EDGE_CURVE('',#108,#110,#86,.T.);
#140=EDGE_CURVE('',#109,#111,#87,.T.);
#141=EDGE_CURVE('',#111,#112,#88,.T.);
#142=EDGE_CURVE('',#112,#111,#89,.T.);
#143=ORIENTED_EDGE('',*,*,#113,.T.);
#144=ORIENTED_EDGE('',*,*,#114,.T.);
#145=ORIENTED_EDGE('',*,*,#114,.F.);
#146=ORIENTED_EDGE('',*,*,#115,.T.);
#147=ORIENTED_EDGE('',*,*,#116,.F.);
#148=ORIENTED_EDGE('',*,*,#117,.F.);
#149=ORIENTED_EDGE('',*,*,#118,.T.);
#150=ORIENTED_EDGE('',*,*,#119,.F.);
#151=ORIENTED_EDGE('',*,*,#120,.F.);
#152=ORIENTED_EDGE('',*,*,#118,.F.);
#153=ORIENTED_EDGE('',*,*,#119,.T.);
#154=ORIENTED_EDGE('',*,*,#121,.T.);
#155=ORIENTED_EDGE('',*,*,#113,.F.);
#156=ORIENTED_EDGE('',*,*,#115,.F.);
#157=ORIENTED_EDGE('',*,*,#121,.F.);
#158=ORIENTED_EDGE('',*,*,#120,.T.);
#159=ORIENTED_EDGE('',*,*,#122,.F.);
#160=ORIENTED_EDGE('',*,*,#123,.F.);
#161=ORIENTED_EDGE('',*,*,#124,.T.);
#162=ORIENTED_EDGE('',*,*,#125,.F.);
#163=ORIENTED_EDGE('',*,*,#126,.F.);
#164=ORIENTED_EDGE('',*,*,#127,.F.);
#165=ORIENTED_EDGE('',*,*,#124,.F.);
#166=ORIENTED_EDGE('',*,*,#122,.T.);
#167=ORIENTED_EDGE('',*,*,#123,.T.);
#168=ORIENTED_EDGE('',*,*,#116,.T.);
#169=ORIENTED_EDGE('',*,*,#117,.T.);
#170=ORIENTED_EDGE('',*,*,#128,.F.);
#171=ORIENTED_EDGE('',*,*,#129,.T.);
#172=ORIENTED_EDGE('',*,*,#126,.T.);
#173=ORIENTED_EDGE('',*,*,#125,.T.);
#174=ORIENTED_EDGE('',*,*,#127,.T.);
#175=ORIENTED_EDGE('',*,*,#129,.F.);
#176=ORIENTED_EDGE('',*,*,#130,.T.);
#177=ORIENTED_EDGE('',*,*,#131,.T.);
#178=ORIENTED_EDGE('',*,*,#132,.T.);
#179=ORIENTED_EDGE('',*,*,#133,.T.);
#180=ORIENTED_EDGE('',*,*,#134,.T.);
#181=ORIENTED_EDGE('',*,*,#131,.F.);
#182=ORIENTED_EDGE('',*,*,#135,.T.);
#183=ORIENTED_EDGE('',*,*,#133,.F.);
#184=ORIENTED_EDGE('',*,*,#132,.F.);
#185=ORIENTED_EDGE('',*,*,#134,.F.);
#186=ORIENTED_EDGE('',*,*,#136,.T.);
#187=ORIENTED_EDGE('',*,*,#137,.F.);
#188=ORIENTED_EDGE('',*,*,#138,.F.);
#189=ORIENTED_EDGE('',*,*,#139,.F.);
#190=ORIENTED_EDGE('',*,*,#136,.F.);
#191=ORIENTED_EDGE('',*,*,#130,.F.);
#192=ORIENTED_EDGE('',*,*,#135,.F.);
#193=ORIENTED_EDGE('',*,*,#128,.T.);
#194=ORIENTED_EDGE('',*,*,#138,.T.);
#195=ORIENTED_EDGE('',*,*,#140,.T.);
#196=ORIENTED_EDGE('',*,*,#141,.T.);
#197=ORIENTED_EDGE('',*,*,#142,.T.);
#198=ORIENTED_EDGE('',*,*,#140,.F.);
#199=ORIENTED_EDGE('',*,*,#137,.T.);
#200=ORIENTED_EDGE('',*,*,#139,.T.);
#201=ORIENTED_EDGE('',*,*,#142,.F.);
#202=ORIENTED_EDGE('',*,*,#141,.F.);
#203=CONICAL_SURFACE('',#238,1.66175,1.02974425867665);
#204=CONICAL_SURFACE('',#241,3.48675,0.785398163397448);
#205=CONICAL_SURFACE('',#247,6.25,0.785398163397449);
#206=CONICAL_SURFACE('',#263,8.76,0.121818065203491);
#207=ADVANCED_FACE('',(#30),#203,.F.);
#208=ADVANCED_FACE('',(#31),#204,.F.);
#209=ADVANCED_FACE('',(#32),#28,.F.);
#210=ADVANCED_FACE('',(#33),#205,.T.);
#211=ADVANCED_FACE('',(#34,#23),#25,.T.);
#212=ADVANCED_FACE('',(#35),#29,.F.);
#213=ADVANCED_FACE('',(#36),#14,.T.);
#214=ADVANCED_FACE('',(#37),#206,.T.);
#215=ADVANCED_FACE('',(#38,#24),#26,.T.);
#216=ADVANCED_FACE('',(#39),#15,.T.);
#217=ADVANCED_FACE('',(#40),#27,.T.);
#218=CLOSED_SHELL('',(#207,#208,#209,#210,#211,#212,#213,#214,#215,#216,
#217));
#219=DERIVED_UNIT_ELEMENT(#221,1.);
#220=DERIVED_UNIT_ELEMENT(#421,3.);
#221=(
MASS_UNIT()
NAMED_UNIT(*)
SI_UNIT($,.GRAM.)
);
#222=DERIVED_UNIT((#219,#220));
#223=MEASURE_REPRESENTATION_ITEM('density measure',
POSITIVE_RATIO_MEASURE(1.),#222);
#224=PROPERTY_DEFINITION_REPRESENTATION(#229,#226);
#225=PROPERTY_DEFINITION_REPRESENTATION(#230,#227);
#226=REPRESENTATION('material name',(#228),#418);
#227=REPRESENTATION('density',(#223),#418);
#228=DESCRIPTIVE_REPRESENTATION_ITEM('Generic','Generic');
#229=PROPERTY_DEFINITION('material property','material name',#428);
#230=PROPERTY_DEFINITION('material property','density of part',#428);
#231=DATE_TIME_ROLE('creation_date');
#232=APPLIED_DATE_AND_TIME_ASSIGNMENT(#233,#231,(#428));
#233=DATE_AND_TIME(#234,#235);
#234=CALENDAR_DATE(2021,14,10);
#235=LOCAL_TIME(0,0,0.,#236);
#236=COORDINATED_UNIVERSAL_TIME_OFFSET(0,0,.BEHIND.);
#237=AXIS2_PLACEMENT_3D('placement',#351,#273,#274);
#238=AXIS2_PLACEMENT_3D('',#352,#275,#276);
#239=AXIS2_PLACEMENT_3D('',#355,#277,#278);
#240=AXIS2_PLACEMENT_3D('',#358,#280,#281);
#241=AXIS2_PLACEMENT_3D('',#359,#282,#283);
#242=AXIS2_PLACEMENT_3D('',#362,#284,#285);
#243=AXIS2_PLACEMENT_3D('',#363,#286,#287);
#244=AXIS2_PLACEMENT_3D('',#367,#289,#290);
#245=AXIS2_PLACEMENT_3D('',#368,#291,#292);
#246=AXIS2_PLACEMENT_3D('',#369,#293,#294);
#247=AXIS2_PLACEMENT_3D('',#371,#296,#297);
#248=AXIS2_PLACEMENT_3D('',#374,#298,#299);
#249=AXIS2_PLACEMENT_3D('',#375,#300,#301);
#250=AXIS2_PLACEMENT_3D('',#379,#303,#304);
#251=AXIS2_PLACEMENT_3D('',#381,#305,#306);
#252=AXIS2_PLACEMENT_3D('',#382,#307,#308);
#253=AXIS2_PLACEMENT_3D('',#383,#309,#310);
#254=AXIS2_PLACEMENT_3D('',#384,#311,#312);
#255=AXIS2_PLACEMENT_3D('',#386,#313,#314);
#256=AXIS2_PLACEMENT_3D('',#388,#316,#317);
#257=AXIS2_PLACEMENT_3D('',#391,#318,#319);
#258=AXIS2_PLACEMENT_3D('',#393,#320,#321);
#259=AXIS2_PLACEMENT_3D('',#395,#322,#323);
#260=AXIS2_PLACEMENT_3D('',#397,#324,#325);
#261=AXIS2_PLACEMENT_3D('',#398,#326,#327);
#262=AXIS2_PLACEMENT_3D('',#399,#328,#329);
#263=AXIS2_PLACEMENT_3D('',#400,#330,#331);
#264=AXIS2_PLACEMENT_3D('',#404,#333,#334);
#265=AXIS2_PLACEMENT_3D('',#406,#335,#336);
#266=AXIS2_PLACEMENT_3D('',#407,#337,#338);
#267=AXIS2_PLACEMENT_3D('',#408,#339,#340);
#268=AXIS2_PLACEMENT_3D('',#409,#341,#342);
#269=AXIS2_PLACEMENT_3D('',#411,#343,#344);
#270=AXIS2_PLACEMENT_3D('',#413,#345,#346);
#271=AXIS2_PLACEMENT_3D('',#414,#347,#348);
#272=AXIS2_PLACEMENT_3D('',#415,#349,#350);
#273=DIRECTION('axis',(0.,0.,1.));
#274=DIRECTION('refdir',(1.,0.,0.));
#275=DIRECTION('center_axis',(2.09481724363958E-17,1.,9.71605163375619E-17));
#276=DIRECTION('ref_axis',(0.129438940448705,-9.905465247639E-17,0.991587394381109));
#277=DIRECTION('center_axis',(2.09481724363958E-17,1.,9.71605163375619E-17));
#278=DIRECTION('ref_axis',(0.129438940448705,-9.905465247639E-17,0.991587394381109));
#279=DIRECTION('',(0.110950827190158,-0.515038074910054,0.849956290251896));
#280=DIRECTION('center_axis',(2.09481724363958E-17,1.,9.71605163375619E-17));
#281=DIRECTION('ref_axis',(0.129438940448705,-9.905465247639E-17,0.991587394381109));
#282=DIRECTION('center_axis',(2.09481724363958E-17,1.,9.71605163375619E-17));
#283=DIRECTION('ref_axis',(0.129438940448705,-9.905465247639E-17,0.991587394381109));
#284=DIRECTION('center_axis',(-2.09481724363958E-17,-1.,-9.71605163375619E-17));
#285=DIRECTION('ref_axis',(0.129438940448705,-9.905465247639E-17,0.991587394381109));
#286=DIRECTION('center_axis',(-2.09481724363958E-17,-1.,-9.71605163375619E-17));
#287=DIRECTION('ref_axis',(0.129438940448705,-9.905465247639E-17,0.991587394381109));
#288=DIRECTION('',(0.0915271525408808,-0.707106781186548,0.701158170705981));
#289=DIRECTION('center_axis',(2.09481724363958E-17,1.,9.71605163375619E-17));
#290=DIRECTION('ref_axis',(0.129438940448705,-9.905465247639E-17,0.991587394381109));
#291=DIRECTION('center_axis',(2.09481724363958E-17,1.,9.71605163375619E-17));
#292=DIRECTION('ref_axis',(0.129438940448705,-9.905465247639E-17,0.991587394381109));
#293=DIRECTION('center_axis',(2.09481724363958E-17,1.,9.71605163375619E-17));
#294=DIRECTION('ref_axis',(0.129438940448705,-9.905465247639E-17,0.991587394381109));
#295=DIRECTION('',(-2.09481724363959E-17,-1.,-9.71605163375619E-17));
#296=DIRECTION('center_axis',(-2.09481724363958E-17,-1.,-9.71605163375619E-17));
#297=DIRECTION('ref_axis',(0.129438940448705,-9.905465247639E-17,0.991587394381109));
#298=DIRECTION('center_axis',(2.09481724363958E-17,1.,9.71605163375619E-17));
#299=DIRECTION('ref_axis',(0.129438940448705,-9.905465247639E-17,0.991587394381109));
#300=DIRECTION('center_axis',(2.09481724363958E-17,1.,9.71605163375619E-17));
#301=DIRECTION('ref_axis',(0.129438940448705,-9.905465247639E-17,0.991587394381109));
#302=DIRECTION('',(-0.0915271525408808,-0.707106781186547,-0.701158170705982));
#303=DIRECTION('center_axis',(0.,-1.,0.));
#304=DIRECTION('ref_axis',(-1.,0.,0.));
#305=DIRECTION('center_axis',(0.,-1.,0.));
#306=DIRECTION('ref_axis',(-1.,0.,0.));
#307=DIRECTION('center_axis',(0.,-1.,0.));
#308=DIRECTION('ref_axis',(-1.,0.,0.));
#309=DIRECTION('center_axis',(2.09481724363958E-17,1.,9.71605163375619E-17));
#310=DIRECTION('ref_axis',(-0.991587394381109,8.19558943506886E-18,0.129438940448705));
#311=DIRECTION('center_axis',(0.,-1.,0.));
#312=DIRECTION('ref_axis',(-1.,0.,0.));
#313=DIRECTION('center_axis',(0.,-1.,0.));
#314=DIRECTION('ref_axis',(-1.,0.,0.));
#315=DIRECTION('',(0.,-1.,0.));
#316=DIRECTION('center_axis',(0.,1.,0.));
#317=DIRECTION('ref_axis',(0.,0.,1.));
#318=DIRECTION('center_axis',(0.,-1.,0.));
#319=DIRECTION('ref_axis',(1.,0.,0.));
#320=DIRECTION('center_axis',(-1.,0.,2.28792734752132E-16));
#321=DIRECTION('ref_axis',(-2.28792734752132E-16,0.,-1.));
#322=DIRECTION('center_axis',(0.,1.,0.));
#323=DIRECTION('ref_axis',(1.,0.,-6.12323399573677E-17));
#324=DIRECTION('center_axis',(0.,1.,0.));
#325=DIRECTION('ref_axis',(1.,0.,-6.12323399573677E-17));
#326=DIRECTION('center_axis',(0.,1.,0.));
#327=DIRECTION('ref_axis',(1.,0.,-6.12323399573677E-17));
#328=DIRECTION('center_axis',(0.,-1.,0.));
#329=DIRECTION('ref_axis',(1.,0.,0.));
#330=DIRECTION('center_axis',(0.,1.,0.));
#331=DIRECTION('ref_axis',(-1.,0.,0.));
#332=DIRECTION('',(-0.121516999283152,-0.992589350580198,1.48815404214103E-17));
#333=DIRECTION('center_axis',(0.,-1.,0.));
#334=DIRECTION('ref_axis',(1.,0.,-6.12323399573677E-17));
#335=DIRECTION('center_axis',(0.,-1.,0.));
#336=DIRECTION('ref_axis',(1.,0.,-6.12323399573677E-17));
#337=DIRECTION('center_axis',(0.,-1.,0.));
#338=DIRECTION('ref_axis',(1.,0.,-6.12323399573677E-17));
#339=DIRECTION('center_axis',(0.,1.,0.));
#340=DIRECTION('ref_axis',(0.,0.,1.));
#341=DIRECTION('center_axis',(0.,1.,0.));
#342=DIRECTION('ref_axis',(0.,0.,1.));
#343=DIRECTION('center_axis',(-1.,0.,0.));
#344=DIRECTION('ref_axis',(0.,0.,-1.));
#345=DIRECTION('center_axis',(0.,1.,0.));
#346=DIRECTION('ref_axis',(1.,0.,0.));
#347=DIRECTION('center_axis',(0.,1.,0.));
#348=DIRECTION('ref_axis',(1.,0.,0.));
#349=DIRECTION('center_axis',(0.,-1.,0.));
#350=DIRECTION('ref_axis',(0.,0.,-1.));
#351=CARTESIAN_POINT('',(0.,0.,0.));
#352=CARTESIAN_POINT('Origin',(-19.0932308776854,-1.02434230855112,3.94709845766188E-15));
#353=CARTESIAN_POINT('',(-18.6630405591041,-0.0258621748820687,3.29554070522562));
#354=CARTESIAN_POINT('',(-19.5234211962666,-0.0258621748820675,-3.29554070522561));
#355=CARTESIAN_POINT('Origin',(-19.0932308776854,-0.0258621748820687,4.04411130300196E-15));
#356=CARTESIAN_POINT('',(-19.0932308776854,-2.02282244222017,3.85008561232179E-15));
#357=CARTESIAN_POINT('',(-19.308326036976,-1.02434230855112,-1.6477703526128));
#358=CARTESIAN_POINT('Origin',(-19.0932308776854,-0.0258621748820687,4.04411130300196E-15));
#359=CARTESIAN_POINT('Origin',(-19.0932308776854,9.81088782511793,4.99985501208547E-15));
#360=CARTESIAN_POINT('',(-18.6207787450476,9.97413782511793,3.61929398949105));
#361=CARTESIAN_POINT('',(-19.5656830103231,9.97413782511793,-3.61929398949104));
#362=CARTESIAN_POINT('Origin',(-19.0932308776854,9.97413782511793,5.01571646637758E-15));
#363=CARTESIAN_POINT('Origin',(-19.0932308776854,9.97413782511793,5.01571646637758E-15));
#364=CARTESIAN_POINT('',(-19.5234211962666,9.64763782511793,-3.29554070522561));
#365=CARTESIAN_POINT('',(-19.5445521032949,9.81088782511793,-3.45741734735833));
#366=CARTESIAN_POINT('',(-18.6630405591041,9.64763782511793,3.29554070522562));
#367=CARTESIAN_POINT('Origin',(-19.0932308776854,9.64763782511793,4.98399355779336E-15));
#368=CARTESIAN_POINT('Origin',(-19.0932308776854,9.64763782511793,4.98399355779336E-15));
#369=CARTESIAN_POINT('Origin',(-19.0932308776854,4.97413782511793,4.52991388468977E-15));
#370=CARTESIAN_POINT('',(-19.5234211962666,4.97413782511793,-3.29554070522561));
#371=CARTESIAN_POINT('Origin',(-19.0932308776854,9.72413782511793,4.99142633729319E-15));
#372=CARTESIAN_POINT('',(-18.3165972349931,9.97413782511793,5.94952436628666));
#373=CARTESIAN_POINT('',(-19.8698645203776,9.97413782511793,-5.94952436628665));
#374=CARTESIAN_POINT('Origin',(-19.0932308776854,9.97413782511793,5.01571646637758E-15));
#375=CARTESIAN_POINT('Origin',(-19.0932308776854,9.97413782511793,5.01571646637758E-15));
#376=CARTESIAN_POINT('',(-19.934583990602,9.47413782511792,-6.44531806347721));
#377=CARTESIAN_POINT('',(-19.9022242554898,9.72413782511793,-6.19742121488193));
#378=CARTESIAN_POINT('',(-18.2518777647688,9.47413782511793,6.44531806347721));
#379=CARTESIAN_POINT('Origin',(-19.0932308776854,9.47413782511793,4.44089209850063E-15));
#380=CARTESIAN_POINT('',(-12.5932308776854,9.47413782511793,5.23691251794641E-15));
#381=CARTESIAN_POINT('Origin',(-19.0932308776854,9.47413782511793,4.44089209850063E-15));
#382=CARTESIAN_POINT('Origin',(-19.0932308776854,9.47413782511793,4.44089209850063E-15));
#383=CARTESIAN_POINT('Origin',(-18.7049140563393,9.97413782511793,2.97476218314333));
#384=CARTESIAN_POINT('Origin',(-19.0932308776854,9.97413782511792,4.44089209850063E-15));
#385=CARTESIAN_POINT('',(-12.5932308776854,9.97413782511792,3.64487167905485E-15));
#386=CARTESIAN_POINT('Origin',(-19.0932308776854,9.97413782511792,4.44089209850063E-15));
#387=CARTESIAN_POINT('',(-12.5932308776854,9.97413782511792,5.23691251794641E-15));
#388=CARTESIAN_POINT('Origin',(-19.0932308776854,9.47413782511792,4.44089209850063E-15));
#389=CARTESIAN_POINT('',(-28.2982857678937,9.97413782511792,3.31359799777369E-15));
#390=CARTESIAN_POINT('',(-19.0932308776854,9.97413782511792,-9.20505489020833));
#391=CARTESIAN_POINT('Origin',(-19.0932308776854,9.97413782511792,4.44089209850063E-15));
#392=CARTESIAN_POINT('',(-19.0932308776854,9.41337932547635,-9.70134956549843));
#393=CARTESIAN_POINT('Origin',(-19.0932308776854,9.47413782511792,-9.20505489020833));
#394=CARTESIAN_POINT('',(-28.7945804431838,9.41337932547635,5.62896476778035E-15));
#395=CARTESIAN_POINT('Origin',(-19.0932308776854,9.41337932547635,3.84685576386077E-15));
#396=CARTESIAN_POINT('',(-9.39188131218694,9.41337932547635,3.2528194292209E-15));
#397=CARTESIAN_POINT('Origin',(-19.0932308776854,9.41337932547635,3.84685576386077E-15));
#398=CARTESIAN_POINT('Origin',(-19.0932308776854,9.41337932547635,3.84685576386077E-15));
#399=CARTESIAN_POINT('Origin',(-19.0932308776854,9.97413782511792,4.44089209850063E-15));
#400=CARTESIAN_POINT('Origin',(-19.0932308776854,1.72413782511793,4.44089209850063E-15));
#401=CARTESIAN_POINT('',(-11.2894570697627,-6.08662067452365,3.48520543698638E-15));
#402=CARTESIAN_POINT('',(-10.3332308776854,1.72413782511793,3.36810150244754E-15));
#403=CARTESIAN_POINT('',(-19.0932308776854,-6.08662067452365,-7.80377380792266));
#404=CARTESIAN_POINT('Origin',(-19.0932308776854,-6.08662067452365,3.9630487677435E-15));
#405=CARTESIAN_POINT('',(-26.897004685608,-6.08662067452365,3.48520543698638E-15));
#406=CARTESIAN_POINT('Origin',(-19.0932308776854,-6.08662067452365,3.9630487677435E-15));
#407=CARTESIAN_POINT('Origin',(-19.0932308776854,-6.08662067452365,3.9630487677435E-15));
#408=CARTESIAN_POINT('Origin',(-19.0932308776854,9.97413782511792,4.44089209850063E-15));
#409=CARTESIAN_POINT('Origin',(-19.0932308776854,-6.02586217488207,4.44089209850063E-15));
#410=CARTESIAN_POINT('',(-19.0932308776854,-6.52586217488207,-7.30747913263257));
#411=CARTESIAN_POINT('Origin',(-19.0932308776854,-6.02586217488207,-7.30747913263257));
#412=CARTESIAN_POINT('',(-26.4007100103179,-6.52586217488207,5.33580019146208E-15));
#413=CARTESIAN_POINT('Origin',(-19.0932308776854,-6.52586217488207,4.44089209850063E-15));
#414=CARTESIAN_POINT('Origin',(-19.0932308776854,-6.52586217488207,4.44089209850063E-15));
#415=CARTESIAN_POINT('Origin',(-26.8432308776854,-6.52586217488207,4.44089209850063E-15));
#416=UNCERTAINTY_MEASURE_WITH_UNIT(LENGTH_MEASURE(0.01),#420,
'DISTANCE_ACCURACY_VALUE',
'Maximum model space distance between geometric entities at asserted c
onnectivities');
#417=UNCERTAINTY_MEASURE_WITH_UNIT(LENGTH_MEASURE(0.01),#420,
'DISTANCE_ACCURACY_VALUE',
'Maximum model space distance between geometric entities at asserted c
onnectivities');
#418=(
GEOMETRIC_REPRESENTATION_CONTEXT(3)
GLOBAL_UNCERTAINTY_ASSIGNED_CONTEXT((#416))
GLOBAL_UNIT_ASSIGNED_CONTEXT((#420,#422,#423))
REPRESENTATION_CONTEXT('','3D')
);
#419=(
GEOMETRIC_REPRESENTATION_CONTEXT(3)
GLOBAL_UNCERTAINTY_ASSIGNED_CONTEXT((#417))
GLOBAL_UNIT_ASSIGNED_CONTEXT((#420,#422,#423))
REPRESENTATION_CONTEXT('','3D')
);
#420=(
LENGTH_UNIT()
NAMED_UNIT(*)
SI_UNIT(.MILLI.,.METRE.)
);
#421=(
LENGTH_UNIT()
NAMED_UNIT(*)
SI_UNIT(.CENTI.,.METRE.)
);
#422=(
NAMED_UNIT(*)
PLANE_ANGLE_UNIT()
SI_UNIT($,.RADIAN.)
);
#423=(
NAMED_UNIT(*)
SI_UNIT($,.STERADIAN.)
SOLID_ANGLE_UNIT()
);
#424=SHAPE_DEFINITION_REPRESENTATION(#425,#426);
#425=PRODUCT_DEFINITION_SHAPE('',$,#428);
#426=SHAPE_REPRESENTATION('',(#237),#418);
#427=PRODUCT_DEFINITION_CONTEXT('part definition',#432,'design');
#428=PRODUCT_DEFINITION('NM8 Simplified','NM8 Simplified',#429,#427);
#429=PRODUCT_DEFINITION_FORMATION('',$,#434);
#430=PRODUCT_RELATED_PRODUCT_CATEGORY('NM8 Simplified','NM8 Simplified',
(#434));
#431=APPLICATION_PROTOCOL_DEFINITION('international standard',
'automotive_design',2009,#432);
#432=APPLICATION_CONTEXT(
'Core Data for Automotive Mechanical Design Process');
#433=PRODUCT_CONTEXT('part definition',#432,'mechanical');
#434=PRODUCT('NM8 Simplified','NM8 Simplified',$,(#433));
#435=PRESENTATION_STYLE_ASSIGNMENT((#437));
#436=PRESENTATION_STYLE_ASSIGNMENT((#438));
#437=SURFACE_STYLE_USAGE(.BOTH.,#443);
#438=SURFACE_STYLE_USAGE(.BOTH.,#444);
#439=SURFACE_STYLE_RENDERING_WITH_PROPERTIES($,#451,(#441));
#440=SURFACE_STYLE_RENDERING_WITH_PROPERTIES($,#452,(#442));
#441=SURFACE_STYLE_TRANSPARENT(0.);
#442=SURFACE_STYLE_TRANSPARENT(0.);
#443=SURFACE_SIDE_STYLE('',(#445,#439));
#444=SURFACE_SIDE_STYLE('',(#446,#440));
#445=SURFACE_STYLE_FILL_AREA(#447);
#446=SURFACE_STYLE_FILL_AREA(#448);
#447=FILL_AREA_STYLE('',(#449));
#448=FILL_AREA_STYLE('',(#450));
#449=FILL_AREA_STYLE_COLOUR('',#451);
#450=FILL_AREA_STYLE_COLOUR('',#452);
#451=COLOUR_RGB('',0.749019607843137,0.749019607843137,0.749019607843137);
#452=COLOUR_RGB('',0.250980392156863,0.250980392156863,0.250980392156863);
ENDSEC;
END-ISO-10303-21;
