ISO-10303-21;
HEADER;
/* Generated by software containing ST-Developer
 * from STEP Tools, Inc. (www.steptools.com) 
 */

FILE_DESCRIPTION(
/* description */ (''),
/* implementation_level */ '2;1');

FILE_NAME(
/* name */ 'C:\\TEMP\\NP8.stp',
/* time_stamp */ '2021-10-18T12:49:25+01:00',
/* author */ ('Sandfield Engineering'),
/* organization */ ('Sandfield Engineering'),
/* preprocessor_version */ 'ST-DEVELOPER v18.1',
/* originating_system */ 'Autodesk Inventor 2021',
/* authorisation */ '');

FILE_SCHEMA (('AUTOMOTIVE_DESIGN { 1 0 10303 214 3 1 1 }'));
ENDSEC;

DATA;
#10=MECHANICAL_DESIGN_GEOMETRIC_PRESENTATION_REPRESENTATION('',(#13),#334);
#11=SHAPE_REPRESENTATION_RELATIONSHIP('SRR','None',#341,#12);
#12=ADVANCED_BREP_SHAPE_REPRESENTATION('',(#14),#333);
#13=STYLED_ITEM('',(#350),#14);
#14=MANIFOLD_SOLID_BREP('Solid1',#168);
#15=CYLINDRICAL_SURFACE('',#207,7.);
#16=CYLINDRICAL_SURFACE('',#213,4.25);
#17=FACE_BOUND('',#44,.T.);
#18=FACE_BOUND('',#49,.T.);
#19=LINE('',#301,#22);
#20=LINE('',#318,#23);
#21=LINE('',#326,#24);
#22=VECTOR('',#243,8.75);
#23=VECTOR('',#262,7.);
#24=VECTOR('',#273,4.25);
#25=CONICAL_SURFACE('',#196,8.75,0.124354994546761);
#26=PLANE('',#195);
#27=PLANE('',#204);
#28=PLANE('',#212);
#29=PLANE('',#216);
#30=FACE_OUTER_BOUND('',#39,.T.);
#31=FACE_OUTER_BOUND('',#40,.T.);
#32=FACE_OUTER_BOUND('',#41,.T.);
#33=FACE_OUTER_BOUND('',#42,.T.);
#34=FACE_OUTER_BOUND('',#43,.T.);
#35=FACE_OUTER_BOUND('',#45,.T.);
#36=FACE_OUTER_BOUND('',#46,.T.);
#37=FACE_OUTER_BOUND('',#47,.T.);
#38=FACE_OUTER_BOUND('',#48,.T.);
#39=EDGE_LOOP('',(#111,#112,#113,#114,#115,#116,#117));
#40=EDGE_LOOP('',(#118,#119));
#41=EDGE_LOOP('',(#120,#121,#122,#123,#124,#125,#126,#127));
#42=EDGE_LOOP('',(#128,#129,#130,#131,#132,#133,#134));
#43=EDGE_LOOP('',(#135,#136));
#44=EDGE_LOOP('',(#137,#138));
#45=EDGE_LOOP('',(#139,#140,#141,#142,#143,#144));
#46=EDGE_LOOP('',(#145,#146));
#47=EDGE_LOOP('',(#147,#148,#149,#150,#151,#152));
#48=EDGE_LOOP('',(#153,#154));
#49=EDGE_LOOP('',(#155,#156));
#50=CIRCLE('',#189,8.10949565817635);
#51=CIRCLE('',#190,1.);
#52=CIRCLE('',#191,7.11721778146268);
#53=CIRCLE('',#192,7.11721778146268);
#54=CIRCLE('',#193,8.10949565817635);
#55=CIRCLE('',#194,8.10949565817635);
#56=CIRCLE('',#197,9.5);
#57=CIRCLE('',#198,9.5);
#58=CIRCLE('',#199,9.5);
#59=CIRCLE('',#201,8.5);
#60=CIRCLE('',#202,1.);
#61=CIRCLE('',#203,8.5);
#62=CIRCLE('',#205,4.25);
#63=CIRCLE('',#206,4.25);
#64=CIRCLE('',#208,7.);
#65=CIRCLE('',#209,7.);
#66=CIRCLE('',#210,7.);
#67=CIRCLE('',#211,7.);
#68=CIRCLE('',#214,4.25);
#69=CIRCLE('',#215,4.25);
#70=VERTEX_POINT('',#282);
#71=VERTEX_POINT('',#283);
#72=VERTEX_POINT('',#285);
#73=VERTEX_POINT('',#287);
#74=VERTEX_POINT('',#290);
#75=VERTEX_POINT('',#295);
#76=VERTEX_POINT('',#296);
#77=VERTEX_POINT('',#298);
#78=VERTEX_POINT('',#303);
#79=VERTEX_POINT('',#304);
#80=VERTEX_POINT('',#309);
#81=VERTEX_POINT('',#310);
#82=VERTEX_POINT('',#314);
#83=VERTEX_POINT('',#315);
#84=VERTEX_POINT('',#317);
#85=VERTEX_POINT('',#319);
#86=VERTEX_POINT('',#325);
#87=VERTEX_POINT('',#327);
#88=EDGE_CURVE('',#70,#71,#50,.T.);
#89=EDGE_CURVE('',#71,#72,#51,.T.);
#90=EDGE_CURVE('',#72,#73,#52,.T.);
#91=EDGE_CURVE('',#73,#72,#53,.T.);
#92=EDGE_CURVE('',#71,#74,#54,.T.);
#93=EDGE_CURVE('',#74,#70,#55,.T.);
#94=EDGE_CURVE('',#75,#76,#56,.T.);
#95=EDGE_CURVE('',#77,#75,#57,.T.);
#96=EDGE_CURVE('',#76,#77,#58,.T.);
#97=EDGE_CURVE('',#76,#74,#19,.T.);
#98=EDGE_CURVE('',#78,#79,#59,.T.);
#99=EDGE_CURVE('',#79,#77,#60,.T.);
#100=EDGE_CURVE('',#79,#78,#61,.T.);
#101=EDGE_CURVE('',#80,#81,#62,.T.);
#102=EDGE_CURVE('',#81,#80,#63,.T.);
#103=EDGE_CURVE('',#82,#83,#64,.T.);
#104=EDGE_CURVE('',#83,#84,#20,.T.);
#105=EDGE_CURVE('',#85,#84,#65,.T.);
#106=EDGE_CURVE('',#84,#85,#66,.T.);
#107=EDGE_CURVE('',#83,#82,#67,.T.);
#108=EDGE_CURVE('',#81,#86,#21,.T.);
#109=EDGE_CURVE('',#87,#86,#68,.T.);
#110=EDGE_CURVE('',#86,#87,#69,.T.);
#111=ORIENTED_EDGE('',*,*,#88,.T.);
#112=ORIENTED_EDGE('',*,*,#89,.T.);
#113=ORIENTED_EDGE('',*,*,#90,.T.);
#114=ORIENTED_EDGE('',*,*,#91,.T.);
#115=ORIENTED_EDGE('',*,*,#89,.F.);
#116=ORIENTED_EDGE('',*,*,#92,.T.);
#117=ORIENTED_EDGE('',*,*,#93,.T.);
#118=ORIENTED_EDGE('',*,*,#91,.F.);
#119=ORIENTED_EDGE('',*,*,#90,.F.);
#120=ORIENTED_EDGE('',*,*,#94,.F.);
#121=ORIENTED_EDGE('',*,*,#95,.F.);
#122=ORIENTED_EDGE('',*,*,#96,.F.);
#123=ORIENTED_EDGE('',*,*,#97,.T.);
#124=ORIENTED_EDGE('',*,*,#92,.F.);
#125=ORIENTED_EDGE('',*,*,#88,.F.);
#126=ORIENTED_EDGE('',*,*,#93,.F.);
#127=ORIENTED_EDGE('',*,*,#97,.F.);
#128=ORIENTED_EDGE('',*,*,#98,.T.);
#129=ORIENTED_EDGE('',*,*,#99,.T.);
#130=ORIENTED_EDGE('',*,*,#95,.T.);
#131=ORIENTED_EDGE('',*,*,#94,.T.);
#132=ORIENTED_EDGE('',*,*,#96,.T.);
#133=ORIENTED_EDGE('',*,*,#99,.F.);
#134=ORIENTED_EDGE('',*,*,#100,.T.);
#135=ORIENTED_EDGE('',*,*,#98,.F.);
#136=ORIENTED_EDGE('',*,*,#100,.F.);
#137=ORIENTED_EDGE('',*,*,#101,.F.);
#138=ORIENTED_EDGE('',*,*,#102,.F.);
#139=ORIENTED_EDGE('',*,*,#103,.T.);
#140=ORIENTED_EDGE('',*,*,#104,.T.);
#141=ORIENTED_EDGE('',*,*,#105,.F.);
#142=ORIENTED_EDGE('',*,*,#106,.F.);
#143=ORIENTED_EDGE('',*,*,#104,.F.);
#144=ORIENTED_EDGE('',*,*,#107,.T.);
#145=ORIENTED_EDGE('',*,*,#105,.T.);
#146=ORIENTED_EDGE('',*,*,#106,.T.);
#147=ORIENTED_EDGE('',*,*,#101,.T.);
#148=ORIENTED_EDGE('',*,*,#108,.T.);
#149=ORIENTED_EDGE('',*,*,#109,.F.);
#150=ORIENTED_EDGE('',*,*,#110,.F.);
#151=ORIENTED_EDGE('',*,*,#108,.F.);
#152=ORIENTED_EDGE('',*,*,#102,.T.);
#153=ORIENTED_EDGE('',*,*,#103,.F.);
#154=ORIENTED_EDGE('',*,*,#107,.F.);
#155=ORIENTED_EDGE('',*,*,#109,.T.);
#156=ORIENTED_EDGE('',*,*,#110,.T.);
#157=TOROIDAL_SURFACE('',#188,7.11721778146268,1.);
#158=TOROIDAL_SURFACE('',#200,8.5,1.);
#159=ADVANCED_FACE('',(#30),#157,.T.);
#160=ADVANCED_FACE('',(#31),#26,.T.);
#161=ADVANCED_FACE('',(#32),#25,.T.);
#162=ADVANCED_FACE('',(#33),#158,.T.);
#163=ADVANCED_FACE('',(#34,#17),#27,.T.);
#164=ADVANCED_FACE('',(#35),#15,.F.);
#165=ADVANCED_FACE('',(#36),#28,.T.);
#166=ADVANCED_FACE('',(#37),#16,.F.);
#167=ADVANCED_FACE('',(#38,#18),#29,.T.);
#168=CLOSED_SHELL('',(#159,#160,#161,#162,#163,#164,#165,#166,#167));
#169=DERIVED_UNIT_ELEMENT(#171,1.);
#170=DERIVED_UNIT_ELEMENT(#336,3.);
#171=(
MASS_UNIT()
NAMED_UNIT(*)
SI_UNIT($,.GRAM.)
);
#172=DERIVED_UNIT((#169,#170));
#173=MEASURE_REPRESENTATION_ITEM('density measure',
POSITIVE_RATIO_MEASURE(0.93),#172);
#174=PROPERTY_DEFINITION_REPRESENTATION(#179,#176);
#175=PROPERTY_DEFINITION_REPRESENTATION(#180,#177);
#176=REPRESENTATION('material name',(#178),#333);
#177=REPRESENTATION('density',(#173),#333);
#178=DESCRIPTIVE_REPRESENTATION_ITEM('Rubber','Rubber');
#179=PROPERTY_DEFINITION('material property','material name',#343);
#180=PROPERTY_DEFINITION('material property','density of part',#343);
#181=DATE_TIME_ROLE('creation_date');
#182=APPLIED_DATE_AND_TIME_ASSIGNMENT(#183,#181,(#343));
#183=DATE_AND_TIME(#184,#185);
#184=CALENDAR_DATE(2021,18,10);
#185=LOCAL_TIME(0,0,0.,#186);
#186=COORDINATED_UNIVERSAL_TIME_OFFSET(0,0,.BEHIND.);
#187=AXIS2_PLACEMENT_3D('placement',#280,#217,#218);
#188=AXIS2_PLACEMENT_3D('',#281,#219,#220);
#189=AXIS2_PLACEMENT_3D('',#284,#221,#222);
#190=AXIS2_PLACEMENT_3D('',#286,#223,#224);
#191=AXIS2_PLACEMENT_3D('',#288,#225,#226);
#192=AXIS2_PLACEMENT_3D('',#289,#227,#228);
#193=AXIS2_PLACEMENT_3D('',#291,#229,#230);
#194=AXIS2_PLACEMENT_3D('',#292,#231,#232);
#195=AXIS2_PLACEMENT_3D('',#293,#233,#234);
#196=AXIS2_PLACEMENT_3D('',#294,#235,#236);
#197=AXIS2_PLACEMENT_3D('',#297,#237,#238);
#198=AXIS2_PLACEMENT_3D('',#299,#239,#240);
#199=AXIS2_PLACEMENT_3D('',#300,#241,#242);
#200=AXIS2_PLACEMENT_3D('',#302,#244,#245);
#201=AXIS2_PLACEMENT_3D('',#305,#246,#247);
#202=AXIS2_PLACEMENT_3D('',#306,#248,#249);
#203=AXIS2_PLACEMENT_3D('',#307,#250,#251);
#204=AXIS2_PLACEMENT_3D('',#308,#252,#253);
#205=AXIS2_PLACEMENT_3D('',#311,#254,#255);
#206=AXIS2_PLACEMENT_3D('',#312,#256,#257);
#207=AXIS2_PLACEMENT_3D('',#313,#258,#259);
#208=AXIS2_PLACEMENT_3D('',#316,#260,#261);
#209=AXIS2_PLACEMENT_3D('',#320,#263,#264);
#210=AXIS2_PLACEMENT_3D('',#321,#265,#266);
#211=AXIS2_PLACEMENT_3D('',#322,#267,#268);
#212=AXIS2_PLACEMENT_3D('',#323,#269,#270);
#213=AXIS2_PLACEMENT_3D('',#324,#271,#272);
#214=AXIS2_PLACEMENT_3D('',#328,#274,#275);
#215=AXIS2_PLACEMENT_3D('',#329,#276,#277);
#216=AXIS2_PLACEMENT_3D('',#330,#278,#279);
#217=DIRECTION('axis',(0.,0.,1.));
#218=DIRECTION('refdir',(1.,0.,0.));
#219=DIRECTION('center_axis',(0.,1.,0.));
#220=DIRECTION('ref_axis',(0.,0.,1.));
#221=DIRECTION('center_axis',(0.,-1.,0.));
#222=DIRECTION('ref_axis',(1.,0.,-6.12323399573677E-17));
#223=DIRECTION('center_axis',(-1.,0.,1.22464679914735E-16));
#224=DIRECTION('ref_axis',(-1.22464679914735E-16,0.,-1.));
#225=DIRECTION('center_axis',(0.,1.,0.));
#226=DIRECTION('ref_axis',(1.,0.,0.));
#227=DIRECTION('center_axis',(0.,1.,0.));
#228=DIRECTION('ref_axis',(1.,0.,0.));
#229=DIRECTION('center_axis',(0.,-1.,0.));
#230=DIRECTION('ref_axis',(1.,0.,-6.12323399573677E-17));
#231=DIRECTION('center_axis',(0.,-1.,0.));
#232=DIRECTION('ref_axis',(1.,0.,-6.12323399573677E-17));
#233=DIRECTION('center_axis',(0.,-1.,0.));
#234=DIRECTION('ref_axis',(0.,0.,-1.));
#235=DIRECTION('center_axis',(0.,1.,0.));
#236=DIRECTION('ref_axis',(-1.,0.,0.));
#237=DIRECTION('center_axis',(0.,1.,0.));
#238=DIRECTION('ref_axis',(1.,0.,0.));
#239=DIRECTION('center_axis',(0.,1.,0.));
#240=DIRECTION('ref_axis',(1.,0.,0.));
#241=DIRECTION('center_axis',(0.,1.,0.));
#242=DIRECTION('ref_axis',(1.,0.,0.));
#243=DIRECTION('',(-0.124034734589208,-0.992277876713668,1.51898740697765E-17));
#244=DIRECTION('center_axis',(0.,1.,0.));
#245=DIRECTION('ref_axis',(0.,0.,1.));
#246=DIRECTION('center_axis',(0.,-1.,0.));
#247=DIRECTION('ref_axis',(1.,0.,0.));
#248=DIRECTION('center_axis',(-1.,0.,1.22464679914735E-16));
#249=DIRECTION('ref_axis',(-1.22464679914735E-16,0.,-1.));
#250=DIRECTION('center_axis',(0.,-1.,0.));
#251=DIRECTION('ref_axis',(1.,0.,0.));
#252=DIRECTION('center_axis',(0.,1.,0.));
#253=DIRECTION('ref_axis',(0.,0.,1.));
#254=DIRECTION('center_axis',(0.,1.,0.));
#255=DIRECTION('ref_axis',(1.,0.,0.));
#256=DIRECTION('center_axis',(0.,1.,0.));
#257=DIRECTION('ref_axis',(1.,0.,0.));
#258=DIRECTION('center_axis',(0.,1.,0.));
#259=DIRECTION('ref_axis',(-1.,0.,0.));
#260=DIRECTION('center_axis',(0.,1.,0.));
#261=DIRECTION('ref_axis',(1.,0.,0.));
#262=DIRECTION('',(0.,-1.,0.));
#263=DIRECTION('center_axis',(0.,1.,0.));
#264=DIRECTION('ref_axis',(1.,0.,0.));
#265=DIRECTION('center_axis',(0.,1.,0.));
#266=DIRECTION('ref_axis',(1.,0.,0.));
#267=DIRECTION('center_axis',(0.,1.,0.));
#268=DIRECTION('ref_axis',(1.,0.,0.));
#269=DIRECTION('center_axis',(0.,1.,0.));
#270=DIRECTION('ref_axis',(0.,0.,1.));
#271=DIRECTION('center_axis',(0.,1.,0.));
#272=DIRECTION('ref_axis',(-1.,0.,0.));
#273=DIRECTION('',(0.,-1.,0.));
#274=DIRECTION('center_axis',(0.,1.,0.));
#275=DIRECTION('ref_axis',(1.,0.,0.));
#276=DIRECTION('center_axis',(0.,1.,0.));
#277=DIRECTION('ref_axis',(1.,0.,0.));
#278=DIRECTION('center_axis',(0.,-1.,0.));
#279=DIRECTION('ref_axis',(0.,0.,-1.));
#280=CARTESIAN_POINT('',(0.,0.,0.));
#281=CARTESIAN_POINT('Origin',(0.,1.,0.));
#282=CARTESIAN_POINT('',(-8.10949565817635,0.875965265410793,-9.93126790048503E-16));
#283=CARTESIAN_POINT('',(-9.93126790048503E-16,0.875965265410793,-8.10949565817635));
#284=CARTESIAN_POINT('Origin',(0.,0.875965265410793,-4.96563395024251E-16));
#285=CARTESIAN_POINT('',(-8.7160779749029E-16,0.,-7.11721778146268));
#286=CARTESIAN_POINT('Origin',(-8.7160779749029E-16,1.,-7.11721778146268));
#287=CARTESIAN_POINT('',(-7.11721778146268,0.,8.7160779749029E-16));
#288=CARTESIAN_POINT('Origin',(0.,0.,0.));
#289=CARTESIAN_POINT('Origin',(0.,0.,0.));
#290=CARTESIAN_POINT('',(8.10949565817635,0.875965265410793,-9.93126790048503E-16));
#291=CARTESIAN_POINT('Origin',(0.,0.875965265410793,-4.96563395024251E-16));
#292=CARTESIAN_POINT('Origin',(0.,0.875965265410793,-4.96563395024251E-16));
#293=CARTESIAN_POINT('Origin',(-8.,0.,0.));
#294=CARTESIAN_POINT('Origin',(0.,6.,0.));
#295=CARTESIAN_POINT('',(-9.5,12.,0.));
#296=CARTESIAN_POINT('',(9.5,12.,-1.16341445918999E-15));
#297=CARTESIAN_POINT('Origin',(0.,12.,0.));
#298=CARTESIAN_POINT('',(-1.16341445918999E-15,12.,-9.5));
#299=CARTESIAN_POINT('Origin',(0.,12.,0.));
#300=CARTESIAN_POINT('Origin',(0.,12.,0.));
#301=CARTESIAN_POINT('',(8.75,6.,-1.07156594925393E-15));
#302=CARTESIAN_POINT('Origin',(0.,12.,0.));
#303=CARTESIAN_POINT('',(-8.5,13.,-1.04094977927525E-15));
#304=CARTESIAN_POINT('',(-1.04094977927525E-15,13.,-8.5));
#305=CARTESIAN_POINT('Origin',(0.,13.,0.));
#306=CARTESIAN_POINT('Origin',(-1.04094977927525E-15,12.,-8.5));
#307=CARTESIAN_POINT('Origin',(0.,13.,0.));
#308=CARTESIAN_POINT('Origin',(-4.25,13.,0.));
#309=CARTESIAN_POINT('',(-4.25,13.,0.));
#310=CARTESIAN_POINT('',(4.25,13.,-5.20474889637625E-16));
#311=CARTESIAN_POINT('Origin',(0.,13.,0.));
#312=CARTESIAN_POINT('Origin',(0.,13.,0.));
#313=CARTESIAN_POINT('Origin',(0.,9.,0.));
#314=CARTESIAN_POINT('',(-7.,11.5,0.));
#315=CARTESIAN_POINT('',(7.,11.5,-8.57252759403147E-16));
#316=CARTESIAN_POINT('Origin',(0.,11.5,0.));
#317=CARTESIAN_POINT('',(7.,6.5,-8.57252759403147E-16));
#318=CARTESIAN_POINT('',(7.,9.,-8.57252759403147E-16));
#319=CARTESIAN_POINT('',(-7.,6.5,0.));
#320=CARTESIAN_POINT('Origin',(0.,6.5,0.));
#321=CARTESIAN_POINT('Origin',(0.,6.5,0.));
#322=CARTESIAN_POINT('Origin',(0.,11.5,0.));
#323=CARTESIAN_POINT('Origin',(8.54277754375021E-32,6.5,0.));
#324=CARTESIAN_POINT('Origin',(0.,12.25,0.));
#325=CARTESIAN_POINT('',(4.25,11.5,-5.20474889637625E-16));
#326=CARTESIAN_POINT('',(4.25,12.25,-5.20474889637625E-16));
#327=CARTESIAN_POINT('',(-4.25,11.5,0.));
#328=CARTESIAN_POINT('Origin',(0.,11.5,0.));
#329=CARTESIAN_POINT('Origin',(0.,11.5,0.));
#330=CARTESIAN_POINT('Origin',(-7.,11.5,0.));
#331=UNCERTAINTY_MEASURE_WITH_UNIT(LENGTH_MEASURE(0.01),#335,
'DISTANCE_ACCURACY_VALUE',
'Maximum model space distance between geometric entities at asserted c
onnectivities');
#332=UNCERTAINTY_MEASURE_WITH_UNIT(LENGTH_MEASURE(0.01),#335,
'DISTANCE_ACCURACY_VALUE',
'Maximum model space distance between geometric entities at asserted c
onnectivities');
#333=(
GEOMETRIC_REPRESENTATION_CONTEXT(3)
GLOBAL_UNCERTAINTY_ASSIGNED_CONTEXT((#331))
GLOBAL_UNIT_ASSIGNED_CONTEXT((#335,#337,#338))
REPRESENTATION_CONTEXT('','3D')
);
#334=(
GEOMETRIC_REPRESENTATION_CONTEXT(3)
GLOBAL_UNCERTAINTY_ASSIGNED_CONTEXT((#332))
GLOBAL_UNIT_ASSIGNED_CONTEXT((#335,#337,#338))
REPRESENTATION_CONTEXT('','3D')
);
#335=(
LENGTH_UNIT()
NAMED_UNIT(*)
SI_UNIT(.MILLI.,.METRE.)
);
#336=(
LENGTH_UNIT()
NAMED_UNIT(*)
SI_UNIT(.CENTI.,.METRE.)
);
#337=(
NAMED_UNIT(*)
PLANE_ANGLE_UNIT()
SI_UNIT($,.RADIAN.)
);
#338=(
NAMED_UNIT(*)
SI_UNIT($,.STERADIAN.)
SOLID_ANGLE_UNIT()
);
#339=SHAPE_DEFINITION_REPRESENTATION(#340,#341);
#340=PRODUCT_DEFINITION_SHAPE('',$,#343);
#341=SHAPE_REPRESENTATION('',(#187),#333);
#342=PRODUCT_DEFINITION_CONTEXT('part definition',#347,'design');
#343=PRODUCT_DEFINITION('NP10','NP8',#344,#342);
#344=PRODUCT_DEFINITION_FORMATION('',$,#349);
#345=PRODUCT_RELATED_PRODUCT_CATEGORY('NP8','NP8',(#349));
#346=APPLICATION_PROTOCOL_DEFINITION('international standard',
'automotive_design',2009,#347);
#347=APPLICATION_CONTEXT(
'Core Data for Automotive Mechanical Design Process');
#348=PRODUCT_CONTEXT('part definition',#347,'mechanical');
#349=PRODUCT('NP10','NP8',$,(#348));
#350=PRESENTATION_STYLE_ASSIGNMENT((#351));
#351=SURFACE_STYLE_USAGE(.BOTH.,#354);
#352=SURFACE_STYLE_RENDERING_WITH_PROPERTIES($,#358,(#353));
#353=SURFACE_STYLE_TRANSPARENT(0.);
#354=SURFACE_SIDE_STYLE('',(#355,#352));
#355=SURFACE_STYLE_FILL_AREA(#356);
#356=FILL_AREA_STYLE('',(#357));
#357=FILL_AREA_STYLE_COLOUR('',#358);
#358=COLOUR_RGB('',0.250980392156863,0.250980392156863,0.250980392156863);
ENDSEC;
END-ISO-10303-21;
