ISO-10303-21;
HEADER;
/* Generated by software containing ST-Developer
 * from STEP Tools, Inc. (www.steptools.com) 
 */

FILE_DESCRIPTION(
/* description */ (''),
/* implementation_level */ '2;1');

FILE_NAME(
/* name */ 'C:\\TEMP\\NR6.stp',
/* time_stamp */ '2021-10-29T11:46:45+01:00',
/* author */ ('Sandfield Engineering'),
/* organization */ ('Sandfield Engineering'),
/* preprocessor_version */ 'ST-DEVELOPER v18.1',
/* originating_system */ 'Autodesk Inventor 2021',
/* authorisation */ '');

FILE_SCHEMA (('AUTOMOTIVE_DESIGN { 1 0 10303 214 3 1 1 }'));
ENDSEC;

DATA;
#10=MECHANICAL_DESIGN_GEOMETRIC_PRESENTATION_REPRESENTATION('',(#160,#161,
#162,#163,#164,#165),#360);
#11=SHAPE_REPRESENTATION_RELATIONSHIP('SRR','None',#367,#12);
#12=ADVANCED_BREP_SHAPE_REPRESENTATION('',(#13),#359);
#13=MANIFOLD_SOLID_BREP('Solid1',#175);
#14=(
BOUNDED_SURFACE()
B_SPLINE_SURFACE(2,2,((#308,#309,#310,#311,#312,#313,#314,#315,#316),(#317,
#318,#319,#320,#321,#322,#323,#324,#325),(#326,#327,#328,#329,#330,#331,
#332,#333,#334)),.UNSPECIFIED.,.F.,.T.,.F.)
B_SPLINE_SURFACE_WITH_KNOTS((3,3),(3,2,2,2,3),(0.0713155314360052,1.57333820445892),
(-3.14159265358979,-1.5707963267949,0.,1.5707963267949,3.14159265358979),
 .UNSPECIFIED.)
GEOMETRIC_REPRESENTATION_ITEM()
RATIONAL_B_SPLINE_SURFACE(((1.,0.707106781186548,1.,0.707106781186548,1.,
0.707106781186548,1.,0.707106781186548,1.),(0.73099912863948,0.516894440902434,
0.73099912863948,0.516894440902434,0.73099912863948,0.516894440902434,0.73099912863948,
0.516894440902434,0.73099912863948),(1.,0.707106781186548,1.,0.707106781186548,
1.,0.707106781186548,1.,0.707106781186548,1.)))
REPRESENTATION_ITEM('')
SURFACE()
);
#15=CONICAL_SURFACE('',#206,7.375,0.0713155314360054);
#16=CONICAL_SURFACE('',#211,1.22925,1.02974425867665);
#17=CONICAL_SURFACE('',#214,2.60425,0.785398163397448);
#18=FACE_BOUND('',#35,.T.);
#19=FACE_BOUND('',#42,.T.);
#20=PLANE('',#205);
#21=PLANE('',#220);
#22=TOROIDAL_SURFACE('',#198,6.6760149682395,1.);
#23=FACE_OUTER_BOUND('',#32,.T.);
#24=FACE_OUTER_BOUND('',#33,.T.);
#25=FACE_OUTER_BOUND('',#34,.T.);
#26=FACE_OUTER_BOUND('',#36,.T.);
#27=FACE_OUTER_BOUND('',#37,.T.);
#28=FACE_OUTER_BOUND('',#38,.T.);
#29=FACE_OUTER_BOUND('',#39,.T.);
#30=FACE_OUTER_BOUND('',#40,.T.);
#31=FACE_OUTER_BOUND('',#41,.T.);
#32=EDGE_LOOP('',(#112,#113,#114,#115));
#33=EDGE_LOOP('',(#116,#117,#118,#119,#120,#121,#122));
#34=EDGE_LOOP('',(#123,#124));
#35=EDGE_LOOP('',(#125));
#36=EDGE_LOOP('',(#126,#127,#128,#129,#130,#131,#132,#133));
#37=EDGE_LOOP('',(#134,#135,#136,#137,#138));
#38=EDGE_LOOP('',(#139,#140,#141,#142));
#39=EDGE_LOOP('',(#143,#144,#145,#146,#147,#148));
#40=EDGE_LOOP('',(#149,#150,#151,#152,#153,#154));
#41=EDGE_LOOP('',(#155));
#42=EDGE_LOOP('',(#156,#157));
#43=LINE('',#285,#48);
#44=LINE('',#306,#49);
#45=LINE('',#342,#50);
#46=LINE('',#350,#51);
#47=LINE('',#355,#52);
#48=VECTOR('',#227,4.5);
#49=VECTOR('',#252,7.375);
#50=VECTOR('',#261,1.22925);
#51=VECTOR('',#270,2.60425);
#52=VECTOR('',#277,2.4585);
#53=CIRCLE('',#196,4.5);
#54=CIRCLE('',#197,4.5);
#55=CIRCLE('',#199,7.67347309331272);
#56=CIRCLE('',#200,7.67347309331272);
#57=CIRCLE('',#201,1.);
#58=CIRCLE('',#202,6.6760149682395);
#59=CIRCLE('',#203,6.6760149682395);
#60=CIRCLE('',#204,7.67347309331272);
#61=CIRCLE('',#207,7.);
#62=CIRCLE('',#208,7.);
#63=CIRCLE('',#209,7.);
#64=CIRCLE('',#210,7.);
#65=CIRCLE('',#212,2.4585);
#66=CIRCLE('',#213,2.4585);
#67=CIRCLE('',#215,2.75);
#68=CIRCLE('',#216,2.75);
#69=CIRCLE('',#217,2.4585);
#70=CIRCLE('',#218,2.4585);
#71=VERTEX_POINT('',#282);
#72=VERTEX_POINT('',#284);
#73=VERTEX_POINT('',#288);
#74=VERTEX_POINT('',#289);
#75=VERTEX_POINT('',#291);
#76=VERTEX_POINT('',#293);
#77=VERTEX_POINT('',#295);
#78=VERTEX_POINT('',#301);
#79=VERTEX_POINT('',#302);
#80=VERTEX_POINT('',#304);
#81=VERTEX_POINT('',#335);
#82=VERTEX_POINT('',#338);
#83=VERTEX_POINT('',#339);
#84=VERTEX_POINT('',#341);
#85=VERTEX_POINT('',#345);
#86=VERTEX_POINT('',#346);
#87=VERTEX_POINT('',#349);
#88=VERTEX_POINT('',#351);
#89=EDGE_CURVE('',#71,#71,#53,.T.);
#90=EDGE_CURVE('',#71,#72,#43,.T.);
#91=EDGE_CURVE('',#72,#72,#54,.T.);
#92=EDGE_CURVE('',#73,#74,#55,.T.);
#93=EDGE_CURVE('',#74,#75,#56,.T.);
#94=EDGE_CURVE('',#75,#76,#57,.T.);
#95=EDGE_CURVE('',#76,#77,#58,.T.);
#96=EDGE_CURVE('',#77,#76,#59,.T.);
#97=EDGE_CURVE('',#75,#73,#60,.T.);
#98=EDGE_CURVE('',#78,#79,#61,.T.);
#99=EDGE_CURVE('',#80,#78,#62,.T.);
#100=EDGE_CURVE('',#80,#74,#44,.T.);
#101=EDGE_CURVE('',#79,#80,#63,.T.);
#102=EDGE_CURVE('',#81,#79,#64,.T.);
#103=EDGE_CURVE('',#82,#83,#65,.T.);
#104=EDGE_CURVE('',#83,#84,#45,.T.);
#105=EDGE_CURVE('',#83,#82,#66,.T.);
#106=EDGE_CURVE('',#85,#86,#67,.T.);
#107=EDGE_CURVE('',#86,#85,#68,.T.);
#108=EDGE_CURVE('',#86,#87,#46,.T.);
#109=EDGE_CURVE('',#88,#87,#69,.T.);
#110=EDGE_CURVE('',#87,#88,#70,.T.);
#111=EDGE_CURVE('',#87,#83,#47,.T.);
#112=ORIENTED_EDGE('',*,*,#89,.F.);
#113=ORIENTED_EDGE('',*,*,#90,.T.);
#114=ORIENTED_EDGE('',*,*,#91,.F.);
#115=ORIENTED_EDGE('',*,*,#90,.F.);
#116=ORIENTED_EDGE('',*,*,#92,.T.);
#117=ORIENTED_EDGE('',*,*,#93,.T.);
#118=ORIENTED_EDGE('',*,*,#94,.T.);
#119=ORIENTED_EDGE('',*,*,#95,.T.);
#120=ORIENTED_EDGE('',*,*,#96,.T.);
#121=ORIENTED_EDGE('',*,*,#94,.F.);
#122=ORIENTED_EDGE('',*,*,#97,.T.);
#123=ORIENTED_EDGE('',*,*,#96,.F.);
#124=ORIENTED_EDGE('',*,*,#95,.F.);
#125=ORIENTED_EDGE('',*,*,#89,.T.);
#126=ORIENTED_EDGE('',*,*,#98,.F.);
#127=ORIENTED_EDGE('',*,*,#99,.F.);
#128=ORIENTED_EDGE('',*,*,#100,.T.);
#129=ORIENTED_EDGE('',*,*,#92,.F.);
#130=ORIENTED_EDGE('',*,*,#97,.F.);
#131=ORIENTED_EDGE('',*,*,#93,.F.);
#132=ORIENTED_EDGE('',*,*,#100,.F.);
#133=ORIENTED_EDGE('',*,*,#101,.F.);
#134=ORIENTED_EDGE('',*,*,#102,.T.);
#135=ORIENTED_EDGE('',*,*,#101,.T.);
#136=ORIENTED_EDGE('',*,*,#99,.T.);
#137=ORIENTED_EDGE('',*,*,#98,.T.);
#138=ORIENTED_EDGE('',*,*,#102,.F.);
#139=ORIENTED_EDGE('',*,*,#103,.T.);
#140=ORIENTED_EDGE('',*,*,#104,.T.);
#141=ORIENTED_EDGE('',*,*,#104,.F.);
#142=ORIENTED_EDGE('',*,*,#105,.T.);
#143=ORIENTED_EDGE('',*,*,#106,.F.);
#144=ORIENTED_EDGE('',*,*,#107,.F.);
#145=ORIENTED_EDGE('',*,*,#108,.T.);
#146=ORIENTED_EDGE('',*,*,#109,.F.);
#147=ORIENTED_EDGE('',*,*,#110,.F.);
#148=ORIENTED_EDGE('',*,*,#108,.F.);
#149=ORIENTED_EDGE('',*,*,#109,.T.);
#150=ORIENTED_EDGE('',*,*,#111,.T.);
#151=ORIENTED_EDGE('',*,*,#103,.F.);
#152=ORIENTED_EDGE('',*,*,#105,.F.);
#153=ORIENTED_EDGE('',*,*,#111,.F.);
#154=ORIENTED_EDGE('',*,*,#110,.T.);
#155=ORIENTED_EDGE('',*,*,#91,.T.);
#156=ORIENTED_EDGE('',*,*,#106,.T.);
#157=ORIENTED_EDGE('',*,*,#107,.T.);
#158=CYLINDRICAL_SURFACE('',#195,4.5);
#159=CYLINDRICAL_SURFACE('',#219,2.4585);
#160=STYLED_ITEM('',(#377),#166);
#161=STYLED_ITEM('',(#377),#167);
#162=STYLED_ITEM('',(#377),#168);
#163=STYLED_ITEM('',(#377),#169);
#164=STYLED_ITEM('',(#377),#170);
#165=STYLED_ITEM('',(#376),#13);
#166=ADVANCED_FACE('',(#23),#158,.F.);
#167=ADVANCED_FACE('',(#24),#22,.T.);
#168=ADVANCED_FACE('',(#25,#18),#20,.T.);
#169=ADVANCED_FACE('',(#26),#15,.T.);
#170=ADVANCED_FACE('',(#27),#14,.F.);
#171=ADVANCED_FACE('',(#28),#16,.F.);
#172=ADVANCED_FACE('',(#29),#17,.F.);
#173=ADVANCED_FACE('',(#30),#159,.F.);
#174=ADVANCED_FACE('',(#31,#19),#21,.T.);
#175=CLOSED_SHELL('',(#166,#167,#168,#169,#170,#171,#172,#173,#174));
#176=DERIVED_UNIT_ELEMENT(#178,1.);
#177=DERIVED_UNIT_ELEMENT(#362,3.);
#178=(
MASS_UNIT()
NAMED_UNIT(*)
SI_UNIT($,.GRAM.)
);
#179=DERIVED_UNIT((#176,#177));
#180=MEASURE_REPRESENTATION_ITEM('density measure',
POSITIVE_RATIO_MEASURE(1.),#179);
#181=PROPERTY_DEFINITION_REPRESENTATION(#186,#183);
#182=PROPERTY_DEFINITION_REPRESENTATION(#187,#184);
#183=REPRESENTATION('material name',(#185),#359);
#184=REPRESENTATION('density',(#180),#359);
#185=DESCRIPTIVE_REPRESENTATION_ITEM('Generic','Generic');
#186=PROPERTY_DEFINITION('material property','material name',#369);
#187=PROPERTY_DEFINITION('material property','density of part',#369);
#188=DATE_TIME_ROLE('creation_date');
#189=APPLIED_DATE_AND_TIME_ASSIGNMENT(#190,#188,(#369));
#190=DATE_AND_TIME(#191,#192);
#191=CALENDAR_DATE(2021,29,10);
#192=LOCAL_TIME(0,0,0.,#193);
#193=COORDINATED_UNIVERSAL_TIME_OFFSET(0,0,.BEHIND.);
#194=AXIS2_PLACEMENT_3D('placement',#280,#221,#222);
#195=AXIS2_PLACEMENT_3D('',#281,#223,#224);
#196=AXIS2_PLACEMENT_3D('',#283,#225,#226);
#197=AXIS2_PLACEMENT_3D('',#286,#228,#229);
#198=AXIS2_PLACEMENT_3D('',#287,#230,#231);
#199=AXIS2_PLACEMENT_3D('',#290,#232,#233);
#200=AXIS2_PLACEMENT_3D('',#292,#234,#235);
#201=AXIS2_PLACEMENT_3D('',#294,#236,#237);
#202=AXIS2_PLACEMENT_3D('',#296,#238,#239);
#203=AXIS2_PLACEMENT_3D('',#297,#240,#241);
#204=AXIS2_PLACEMENT_3D('',#298,#242,#243);
#205=AXIS2_PLACEMENT_3D('',#299,#244,#245);
#206=AXIS2_PLACEMENT_3D('',#300,#246,#247);
#207=AXIS2_PLACEMENT_3D('',#303,#248,#249);
#208=AXIS2_PLACEMENT_3D('',#305,#250,#251);
#209=AXIS2_PLACEMENT_3D('',#307,#253,#254);
#210=AXIS2_PLACEMENT_3D('',#336,#255,#256);
#211=AXIS2_PLACEMENT_3D('',#337,#257,#258);
#212=AXIS2_PLACEMENT_3D('',#340,#259,#260);
#213=AXIS2_PLACEMENT_3D('',#343,#262,#263);
#214=AXIS2_PLACEMENT_3D('',#344,#264,#265);
#215=AXIS2_PLACEMENT_3D('',#347,#266,#267);
#216=AXIS2_PLACEMENT_3D('',#348,#268,#269);
#217=AXIS2_PLACEMENT_3D('',#352,#271,#272);
#218=AXIS2_PLACEMENT_3D('',#353,#273,#274);
#219=AXIS2_PLACEMENT_3D('',#354,#275,#276);
#220=AXIS2_PLACEMENT_3D('',#356,#278,#279);
#221=DIRECTION('axis',(0.,0.,1.));
#222=DIRECTION('refdir',(1.,0.,0.));
#223=DIRECTION('center_axis',(1.02408767150113E-15,1.,4.36186758827354E-16));
#224=DIRECTION('ref_axis',(0.987366313933537,-1.08026533265597E-15,0.158454290283666));
#225=DIRECTION('center_axis',(9.99316957329053E-16,1.,4.32211510858523E-16));
#226=DIRECTION('ref_axis',(0.987366313933537,-1.08026533265597E-15,0.158454290283666));
#227=DIRECTION('',(1.02408767150113E-15,1.,4.36186758827354E-16));
#228=DIRECTION('center_axis',(0.,-1.,0.));
#229=DIRECTION('ref_axis',(0.987366313933537,-1.08026533265597E-15,0.158454290283666));
#230=DIRECTION('center_axis',(9.99316957329053E-16,1.,4.32211510858523E-16));
#231=DIRECTION('ref_axis',(0.158454290283666,2.67575376553442E-16,-0.987366313933537));
#232=DIRECTION('center_axis',(-8.94976482422473E-16,-1.,-4.15466767123731E-16));
#233=DIRECTION('ref_axis',(0.987366313933537,-9.4950212222772E-16,0.158454290283666));
#234=DIRECTION('center_axis',(-8.94976482422473E-16,-1.,-4.15466767123731E-16));
#235=DIRECTION('ref_axis',(0.987366313933537,-9.4950212222772E-16,0.158454290283666));
#236=DIRECTION('center_axis',(0.987366313933537,-1.05517766881478E-15,0.158454290283666));
#237=DIRECTION('ref_axis',(-0.158454290283666,-2.7119126002038E-16,0.987366313933537));
#238=DIRECTION('center_axis',(9.99316957329053E-16,1.,4.32211510858523E-16));
#239=DIRECTION('ref_axis',(0.987366313933537,-1.05517766881478E-15,0.158454290283666));
#240=DIRECTION('center_axis',(9.99316957329053E-16,1.,4.32211510858523E-16));
#241=DIRECTION('ref_axis',(0.987366313933537,-1.05517766881478E-15,0.158454290283666));
#242=DIRECTION('center_axis',(-8.94976482422473E-16,-1.,-4.15466767123731E-16));
#243=DIRECTION('ref_axis',(0.987366313933537,-9.4950212222772E-16,0.158454290283666));
#244=DIRECTION('center_axis',(-9.99316957329053E-16,-1.,-4.32211510858523E-16));
#245=DIRECTION('ref_axis',(-0.158454290283666,-2.68405027074017E-16,0.987366313933537));
#246=DIRECTION('center_axis',(-9.99316957329053E-16,-1.,-4.32211510858523E-16));
#247=DIRECTION('ref_axis',(-0.987366313933537,1.05514958518749E-15,-0.158454290283666));
#248=DIRECTION('center_axis',(9.99316957329053E-16,1.,4.32211510858523E-16));
#249=DIRECTION('ref_axis',(-0.987366313933537,1.05514958518749E-15,-0.158454290283666));
#250=DIRECTION('center_axis',(9.99316957329053E-16,1.,4.32211510858523E-16));
#251=DIRECTION('ref_axis',(-0.987366313933537,1.05514958518749E-15,-0.158454290283666));
#252=DIRECTION('',(0.0703548816213002,-0.997458125073216,0.0112906756874072));
#253=DIRECTION('center_axis',(9.99316957329053E-16,1.,4.32211510858523E-16));
#254=DIRECTION('ref_axis',(-0.987366313933537,1.05514958518749E-15,-0.158454290283666));
#255=DIRECTION('center_axis',(0.987366313933537,-1.05517766881478E-15,0.158454290283666));
#256=DIRECTION('ref_axis',(-0.158454290283666,-3.16402323331877E-16,0.987366313933537));
#257=DIRECTION('center_axis',(0.,-1.,0.));
#258=DIRECTION('ref_axis',(1.,0.,0.));
#259=DIRECTION('center_axis',(0.,-1.,0.));
#260=DIRECTION('ref_axis',(1.,0.,0.));
#261=DIRECTION('',(0.857167300702112,0.515038074910054,1.04972719113862E-16));
#262=DIRECTION('center_axis',(0.,-1.,0.));
#263=DIRECTION('ref_axis',(1.,0.,0.));
#264=DIRECTION('center_axis',(0.,-1.,0.));
#265=DIRECTION('ref_axis',(1.,0.,0.));
#266=DIRECTION('center_axis',(0.,1.,0.));
#267=DIRECTION('ref_axis',(1.,0.,0.));
#268=DIRECTION('center_axis',(0.,1.,0.));
#269=DIRECTION('ref_axis',(1.,0.,0.));
#270=DIRECTION('',(0.707106781186547,0.707106781186548,8.65956056235493E-17));
#271=DIRECTION('center_axis',(0.,-1.,0.));
#272=DIRECTION('ref_axis',(1.,0.,0.));
#273=DIRECTION('center_axis',(0.,-1.,0.));
#274=DIRECTION('ref_axis',(1.,0.,0.));
#275=DIRECTION('center_axis',(0.,-1.,0.));
#276=DIRECTION('ref_axis',(1.,0.,0.));
#277=DIRECTION('',(0.,1.,0.));
#278=DIRECTION('center_axis',(0.,-1.,0.));
#279=DIRECTION('ref_axis',(0.,0.,-1.));
#280=CARTESIAN_POINT('',(0.,0.,0.));
#281=CARTESIAN_POINT('Origin',(-1.74467613396267E-14,-0.500000000000007,
-2.93580676031772E-15));
#282=CARTESIAN_POINT('',(-4.44314841270093,-0.5,-0.713044306276501));
#283=CARTESIAN_POINT('Origin',(-1.74467613396267E-14,-0.500000000000007,
-2.93580676031772E-15));
#284=CARTESIAN_POINT('',(-4.44314841270093,7.63675155851477E-15,-0.713044306276501));
#285=CARTESIAN_POINT('',(-4.44314841270093,-0.500000000000002,-0.7130443062765));
#286=CARTESIAN_POINT('Origin',(-1.69347175038762E-14,2.77555756156289E-15,
-2.71771338090404E-15));
#287=CARTESIAN_POINT('Origin',(-1.64474443822977E-14,0.499999999999994,
-2.5035952494592E-15));
#288=CARTESIAN_POINT('',(-7.57652884321237,0.571255096136527,-1.21589473301168));
#289=CARTESIAN_POINT('',(7.57652884321233,0.571255096136511,1.21589473301167));
#290=CARTESIAN_POINT('Origin',(-1.63758472687644E-14,0.57125509613652,-3.42445742790883E-15));
#291=CARTESIAN_POINT('',(-1.21589473301169,0.571255096136518,7.57652884321235));
#292=CARTESIAN_POINT('Origin',(-1.63758472687644E-14,0.57125509613652,-3.42445742790883E-15));
#293=CARTESIAN_POINT('',(-1.05784321371554,-0.500000000000009,6.59167229095575));
#294=CARTESIAN_POINT('Origin',(-1.05784321371554,0.499999999999992,6.59167229095575));
#295=CARTESIAN_POINT('',(-6.59167229095577,-0.5,-1.05784321371553));
#296=CARTESIAN_POINT('Origin',(-1.74467613396267E-14,-0.500000000000007,
-2.93580676031772E-15));
#297=CARTESIAN_POINT('Origin',(-1.74467613396267E-14,-0.500000000000007,
-2.93580676031772E-15));
#298=CARTESIAN_POINT('Origin',(-1.63758472687644E-14,0.57125509613652,-3.42445742790883E-15));
#299=CARTESIAN_POINT('Origin',(-3.82604446649247,-0.500000000000003,-0.614010374849209));
#300=CARTESIAN_POINT('Origin',(-1.22009427631834E-14,4.74940414347035,-6.66953864361409E-16));
#301=CARTESIAN_POINT('',(-6.91156419753476,9.99880828694071,-1.10918003198566));
#302=CARTESIAN_POINT('',(-1.10918003198567,9.9988082869407,6.91156419753476));
#303=CARTESIAN_POINT('Origin',(-6.9551241867401E-15,9.9988082869407,1.6018990315949E-15));
#304=CARTESIAN_POINT('',(6.91156419753475,9.9988082869407,1.10918003198566));
#305=CARTESIAN_POINT('Origin',(-6.9551241867401E-15,9.9988082869407,1.6018990315949E-15));
#306=CARTESIAN_POINT('',(7.28182656525982,4.74940414347034,1.16860039084204));
#307=CARTESIAN_POINT('Origin',(-6.9551241867401E-15,9.9988082869407,1.6018990315949E-15));
#308=CARTESIAN_POINT('Ctrl Pts',(-1.10918003198567,9.9988082869407,6.91156419753476));
#309=CARTESIAN_POINT('Ctrl Pts',(5.80238416554908,9.99880828694069,8.02074422952042));
#310=CARTESIAN_POINT('Ctrl Pts',(6.91156419753475,9.9988082869407,1.10918003198566));
#311=CARTESIAN_POINT('Ctrl Pts',(8.02074422952041,9.9988082869407,-5.80238416554909));
#312=CARTESIAN_POINT('Ctrl Pts',(1.10918003198566,9.99880828694071,-6.91156419753475));
#313=CARTESIAN_POINT('Ctrl Pts',(-5.8023841655491,9.99880828694071,-8.02074422952042));
#314=CARTESIAN_POINT('Ctrl Pts',(-6.91156419753476,9.99880828694071,-1.10918003198566));
#315=CARTESIAN_POINT('Ctrl Pts',(-8.02074422952042,9.99880828694071,5.80238416554909));
#316=CARTESIAN_POINT('Ctrl Pts',(-1.10918003198567,9.9988082869407,6.91156419753476));
#317=CARTESIAN_POINT('Ctrl Pts',(-1.0354021163038,16.5166096555436,6.45183648346601));
#318=CARTESIAN_POINT('Ctrl Pts',(5.4164343671622,16.5166096555436,7.48723859976981));
#319=CARTESIAN_POINT('Ctrl Pts',(6.45183648346601,16.5166096555436,1.03540211630381));
#320=CARTESIAN_POINT('Ctrl Pts',(7.48723859976981,16.5166096555436,-5.4164343671622));
#321=CARTESIAN_POINT('Ctrl Pts',(1.0354021163038,16.5166096555436,-6.451836483466));
#322=CARTESIAN_POINT('Ctrl Pts',(-5.4164343671622,16.5166096555436,-7.4872385997698));
#323=CARTESIAN_POINT('Ctrl Pts',(-6.45183648346601,16.5166096555436,-1.0354021163038));
#324=CARTESIAN_POINT('Ctrl Pts',(-7.48723859976981,16.5166096555436,5.41643436716221));
#325=CARTESIAN_POINT('Ctrl Pts',(-1.0354021163038,16.5166096555436,6.45183648346601));
#326=CARTESIAN_POINT('Ctrl Pts',(-5.18782204519699E-16,16.5,4.78601886447593E-15));
#327=CARTESIAN_POINT('Ctrl Pts',(-1.44557217449745E-16,16.5,4.84645886808469E-15));
#328=CARTESIAN_POINT('Ctrl Pts',(-8.41172138409852E-17,16.5,4.47223388101473E-15));
#329=CARTESIAN_POINT('Ctrl Pts',(-2.36772102322261E-17,16.5,4.09800889394478E-15));
#330=CARTESIAN_POINT('Ctrl Pts',(-3.9790219730218E-16,16.5,4.03756889033602E-15));
#331=CARTESIAN_POINT('Ctrl Pts',(-7.72127184372134E-16,16.5,3.97712888672726E-15));
#332=CARTESIAN_POINT('Ctrl Pts',(-8.32567187980894E-16,16.5,4.35135387379721E-15));
#333=CARTESIAN_POINT('Ctrl Pts',(-8.93007191589653E-16,16.5,4.72557886086717E-15));
#334=CARTESIAN_POINT('Ctrl Pts',(-5.18782204519699E-16,16.5,4.78601886447593E-15));
#335=CARTESIAN_POINT('',(-4.58373065032831E-16,16.5,4.41178892427717E-15));
#336=CARTESIAN_POINT('Origin',(-0.00281939691260148,9.50002261398502,0.0175683317385742));
#337=CARTESIAN_POINT('Origin',(0.,8.73860791593963,0.));
#338=CARTESIAN_POINT('',(2.4585,8.,0.));
#339=CARTESIAN_POINT('',(-2.4585,8.,-3.01079415570377E-16));
#340=CARTESIAN_POINT('Origin',(0.,8.,0.));
#341=CARTESIAN_POINT('',(0.,9.47721583187926,0.));
#342=CARTESIAN_POINT('',(-1.22925,8.73860791593963,-1.50539707785188E-16));
#343=CARTESIAN_POINT('Origin',(0.,8.,0.));
#344=CARTESIAN_POINT('Origin',(0.,0.14575,0.));
#345=CARTESIAN_POINT('',(2.75,4.27081465895554E-16,0.));
#346=CARTESIAN_POINT('',(-2.75,2.25514051876985E-16,-3.36777869765522E-16));
#347=CARTESIAN_POINT('Origin',(0.,4.33680868994202E-16,0.));
#348=CARTESIAN_POINT('Origin',(0.,4.33680868994202E-16,0.));
#349=CARTESIAN_POINT('',(-2.4585,0.2915,-3.01079415570377E-16));
#350=CARTESIAN_POINT('',(-2.60425,0.14575,-3.18928642667949E-16));
#351=CARTESIAN_POINT('',(2.4585,0.291500000000001,0.));
#352=CARTESIAN_POINT('Origin',(0.,0.2915,0.));
#353=CARTESIAN_POINT('Origin',(0.,0.2915,0.));
#354=CARTESIAN_POINT('Origin',(0.,4.,0.));
#355=CARTESIAN_POINT('',(-2.4585,4.,-3.01079415570377E-16));
#356=CARTESIAN_POINT('Origin',(2.325,4.27081465895554E-16,0.));
#357=UNCERTAINTY_MEASURE_WITH_UNIT(LENGTH_MEASURE(0.01),#361,
'DISTANCE_ACCURACY_VALUE',
'Maximum model space distance between geometric entities at asserted c
onnectivities');
#358=UNCERTAINTY_MEASURE_WITH_UNIT(LENGTH_MEASURE(0.01),#361,
'DISTANCE_ACCURACY_VALUE',
'Maximum model space distance between geometric entities at asserted c
onnectivities');
#359=(
GEOMETRIC_REPRESENTATION_CONTEXT(3)
GLOBAL_UNCERTAINTY_ASSIGNED_CONTEXT((#357))
GLOBAL_UNIT_ASSIGNED_CONTEXT((#361,#363,#364))
REPRESENTATION_CONTEXT('','3D')
);
#360=(
GEOMETRIC_REPRESENTATION_CONTEXT(3)
GLOBAL_UNCERTAINTY_ASSIGNED_CONTEXT((#358))
GLOBAL_UNIT_ASSIGNED_CONTEXT((#361,#363,#364))
REPRESENTATION_CONTEXT('','3D')
);
#361=(
LENGTH_UNIT()
NAMED_UNIT(*)
SI_UNIT(.MILLI.,.METRE.)
);
#362=(
LENGTH_UNIT()
NAMED_UNIT(*)
SI_UNIT(.CENTI.,.METRE.)
);
#363=(
NAMED_UNIT(*)
PLANE_ANGLE_UNIT()
SI_UNIT($,.RADIAN.)
);
#364=(
NAMED_UNIT(*)
SI_UNIT($,.STERADIAN.)
SOLID_ANGLE_UNIT()
);
#365=SHAPE_DEFINITION_REPRESENTATION(#366,#367);
#366=PRODUCT_DEFINITION_SHAPE('',$,#369);
#367=SHAPE_REPRESENTATION('',(#194),#359);
#368=PRODUCT_DEFINITION_CONTEXT('part definition',#373,'design');
#369=PRODUCT_DEFINITION('NR6','NR6',#370,#368);
#370=PRODUCT_DEFINITION_FORMATION('',$,#375);
#371=PRODUCT_RELATED_PRODUCT_CATEGORY('NR6','NR6',(#375));
#372=APPLICATION_PROTOCOL_DEFINITION('international standard',
'automotive_design',2009,#373);
#373=APPLICATION_CONTEXT(
'Core Data for Automotive Mechanical Design Process');
#374=PRODUCT_CONTEXT('part definition',#373,'mechanical');
#375=PRODUCT('NR6','NR6',$,(#374));
#376=PRESENTATION_STYLE_ASSIGNMENT((#378));
#377=PRESENTATION_STYLE_ASSIGNMENT((#379));
#378=SURFACE_STYLE_USAGE(.BOTH.,#382);
#379=SURFACE_STYLE_USAGE(.BOTH.,#383);
#380=SURFACE_STYLE_RENDERING_WITH_PROPERTIES($,#390,(#381));
#381=SURFACE_STYLE_TRANSPARENT(0.);
#382=SURFACE_SIDE_STYLE('',(#384,#380));
#383=SURFACE_SIDE_STYLE('',(#385));
#384=SURFACE_STYLE_FILL_AREA(#386);
#385=SURFACE_STYLE_FILL_AREA(#387);
#386=FILL_AREA_STYLE('',(#388));
#387=FILL_AREA_STYLE('',(#389));
#388=FILL_AREA_STYLE_COLOUR('',#390);
#389=FILL_AREA_STYLE_COLOUR('',#391);
#390=COLOUR_RGB('',0.749019607843137,0.749019607843137,0.749019607843137);
#391=COLOUR_RGB('',0.113725490196078,0.113725490196078,0.113725490196078);
ENDSEC;
END-ISO-10303-21;
