ISO-10303-21;
HEADER;
/* Generated by software containing ST-Developer
 * from STEP Tools, Inc. (www.steptools.com) 
 */

FILE_DESCRIPTION(
/* description */ (''),
/* implementation_level */ '2;1');

FILE_NAME(
/* name */ 'C:\\TEMP\\NR8.stp',
/* time_stamp */ '2021-10-29T11:47:48+01:00',
/* author */ ('Sandfield Engineering'),
/* organization */ ('Sandfield Engineering'),
/* preprocessor_version */ 'ST-DEVELOPER v18.1',
/* originating_system */ 'Autodesk Inventor 2021',
/* authorisation */ '');

FILE_SCHEMA (('AUTOMOTIVE_DESIGN { 1 0 10303 214 3 1 1 }'));
ENDSEC;

DATA;
#10=MECHANICAL_DESIGN_GEOMETRIC_PRESENTATION_REPRESENTATION('',(#165,#166,
#167,#168,#169,#170),#370);
#11=SHAPE_REPRESENTATION_RELATIONSHIP('SRR','None',#377,#12);
#12=ADVANCED_BREP_SHAPE_REPRESENTATION('',(#13),#369);
#13=MANIFOLD_SOLID_BREP('Solid1',#180);
#14=(
BOUNDED_SURFACE()
B_SPLINE_SURFACE(2,2,((#318,#319,#320,#321,#322,#323,#324,#325,#326),(#327,
#328,#329,#330,#331,#332,#333,#334,#335),(#336,#337,#338,#339,#340,#341,
#342,#343,#344)),.UNSPECIFIED.,.F.,.T.,.F.)
B_SPLINE_SURFACE_WITH_KNOTS((3,3),(3,2,2,2,3),(0.0555029324839764,1.57233621978685),
(-3.14159265358979,-1.5707963267949,0.,1.5707963267949,3.14159265358979),
 .UNSPECIFIED.)
GEOMETRIC_REPRESENTATION_ITEM()
RATIONAL_B_SPLINE_SURFACE(((1.,0.707106781186548,1.,0.707106781186548,1.,
0.707106781186548,1.,0.707106781186548,1.),(0.725925909840876,0.513307133487498,
0.725925909840876,0.513307133487498,0.725925909840876,0.513307133487498,
0.725925909840876,0.513307133487498,0.725925909840876),(1.,0.707106781186548,
1.,0.707106781186548,1.,0.707106781186548,1.,0.707106781186548,1.)))
REPRESENTATION_ITEM('')
SURFACE()
);
#15=CONICAL_SURFACE('',#212,9.25,0.0555029324839762);
#16=CONICAL_SURFACE('',#217,1.66175,1.02974425867665);
#17=CONICAL_SURFACE('',#220,3.48675,0.785398163397448);
#18=FACE_BOUND('',#35,.T.);
#19=FACE_BOUND('',#42,.T.);
#20=PLANE('',#211);
#21=PLANE('',#226);
#22=TOROIDAL_SURFACE('',#204,8.44289773623173,1.);
#23=FACE_OUTER_BOUND('',#32,.T.);
#24=FACE_OUTER_BOUND('',#33,.T.);
#25=FACE_OUTER_BOUND('',#34,.T.);
#26=FACE_OUTER_BOUND('',#36,.T.);
#27=FACE_OUTER_BOUND('',#37,.T.);
#28=FACE_OUTER_BOUND('',#38,.T.);
#29=FACE_OUTER_BOUND('',#39,.T.);
#30=FACE_OUTER_BOUND('',#40,.T.);
#31=FACE_OUTER_BOUND('',#41,.T.);
#32=EDGE_LOOP('',(#115,#116,#117,#118,#119));
#33=EDGE_LOOP('',(#120,#121,#122,#123,#124,#125,#126));
#34=EDGE_LOOP('',(#127,#128));
#35=EDGE_LOOP('',(#129));
#36=EDGE_LOOP('',(#130,#131,#132,#133,#134,#135,#136,#137));
#37=EDGE_LOOP('',(#138,#139,#140,#141,#142));
#38=EDGE_LOOP('',(#143,#144,#145,#146));
#39=EDGE_LOOP('',(#147,#148,#149,#150,#151,#152));
#40=EDGE_LOOP('',(#153,#154,#155,#156,#157,#158));
#41=EDGE_LOOP('',(#159,#160));
#42=EDGE_LOOP('',(#161,#162));
#43=LINE('',#293,#48);
#44=LINE('',#316,#49);
#45=LINE('',#352,#50);
#46=LINE('',#360,#51);
#47=LINE('',#365,#52);
#48=VECTOR('',#233,6.);
#49=VECTOR('',#260,9.25);
#50=VECTOR('',#269,1.66175);
#51=VECTOR('',#278,3.48675);
#52=VECTOR('',#285,3.3235);
#53=CIRCLE('',#201,6.);
#54=CIRCLE('',#202,6.);
#55=CIRCLE('',#203,6.);
#56=CIRCLE('',#205,9.44135784384836);
#57=CIRCLE('',#206,9.44135784384836);
#58=CIRCLE('',#207,1.);
#59=CIRCLE('',#208,8.44289773623173);
#60=CIRCLE('',#209,8.44289773623173);
#61=CIRCLE('',#210,9.44135784384836);
#62=CIRCLE('',#213,9.);
#63=CIRCLE('',#214,9.);
#64=CIRCLE('',#215,9.);
#65=CIRCLE('',#216,9.);
#66=CIRCLE('',#218,3.3235);
#67=CIRCLE('',#219,3.3235);
#68=CIRCLE('',#221,3.65);
#69=CIRCLE('',#222,3.65);
#70=CIRCLE('',#223,3.3235);
#71=CIRCLE('',#224,3.3235);
#72=VERTEX_POINT('',#290);
#73=VERTEX_POINT('',#292);
#74=VERTEX_POINT('',#294);
#75=VERTEX_POINT('',#298);
#76=VERTEX_POINT('',#299);
#77=VERTEX_POINT('',#301);
#78=VERTEX_POINT('',#303);
#79=VERTEX_POINT('',#305);
#80=VERTEX_POINT('',#311);
#81=VERTEX_POINT('',#312);
#82=VERTEX_POINT('',#314);
#83=VERTEX_POINT('',#345);
#84=VERTEX_POINT('',#348);
#85=VERTEX_POINT('',#349);
#86=VERTEX_POINT('',#351);
#87=VERTEX_POINT('',#355);
#88=VERTEX_POINT('',#356);
#89=VERTEX_POINT('',#359);
#90=VERTEX_POINT('',#361);
#91=EDGE_CURVE('',#72,#72,#53,.T.);
#92=EDGE_CURVE('',#72,#73,#43,.T.);
#93=EDGE_CURVE('',#74,#73,#54,.T.);
#94=EDGE_CURVE('',#73,#74,#55,.T.);
#95=EDGE_CURVE('',#75,#76,#56,.T.);
#96=EDGE_CURVE('',#76,#77,#57,.T.);
#97=EDGE_CURVE('',#77,#78,#58,.T.);
#98=EDGE_CURVE('',#78,#79,#59,.T.);
#99=EDGE_CURVE('',#79,#78,#60,.T.);
#100=EDGE_CURVE('',#77,#75,#61,.T.);
#101=EDGE_CURVE('',#80,#81,#62,.T.);
#102=EDGE_CURVE('',#82,#80,#63,.T.);
#103=EDGE_CURVE('',#82,#76,#44,.T.);
#104=EDGE_CURVE('',#81,#82,#64,.T.);
#105=EDGE_CURVE('',#83,#81,#65,.T.);
#106=EDGE_CURVE('',#84,#85,#66,.T.);
#107=EDGE_CURVE('',#85,#86,#45,.T.);
#108=EDGE_CURVE('',#85,#84,#67,.T.);
#109=EDGE_CURVE('',#87,#88,#68,.T.);
#110=EDGE_CURVE('',#88,#87,#69,.T.);
#111=EDGE_CURVE('',#88,#89,#46,.T.);
#112=EDGE_CURVE('',#90,#89,#70,.T.);
#113=EDGE_CURVE('',#89,#90,#71,.T.);
#114=EDGE_CURVE('',#89,#85,#47,.T.);
#115=ORIENTED_EDGE('',*,*,#91,.F.);
#116=ORIENTED_EDGE('',*,*,#92,.T.);
#117=ORIENTED_EDGE('',*,*,#93,.F.);
#118=ORIENTED_EDGE('',*,*,#94,.F.);
#119=ORIENTED_EDGE('',*,*,#92,.F.);
#120=ORIENTED_EDGE('',*,*,#95,.T.);
#121=ORIENTED_EDGE('',*,*,#96,.T.);
#122=ORIENTED_EDGE('',*,*,#97,.T.);
#123=ORIENTED_EDGE('',*,*,#98,.T.);
#124=ORIENTED_EDGE('',*,*,#99,.T.);
#125=ORIENTED_EDGE('',*,*,#97,.F.);
#126=ORIENTED_EDGE('',*,*,#100,.T.);
#127=ORIENTED_EDGE('',*,*,#99,.F.);
#128=ORIENTED_EDGE('',*,*,#98,.F.);
#129=ORIENTED_EDGE('',*,*,#91,.T.);
#130=ORIENTED_EDGE('',*,*,#101,.F.);
#131=ORIENTED_EDGE('',*,*,#102,.F.);
#132=ORIENTED_EDGE('',*,*,#103,.T.);
#133=ORIENTED_EDGE('',*,*,#95,.F.);
#134=ORIENTED_EDGE('',*,*,#100,.F.);
#135=ORIENTED_EDGE('',*,*,#96,.F.);
#136=ORIENTED_EDGE('',*,*,#103,.F.);
#137=ORIENTED_EDGE('',*,*,#104,.F.);
#138=ORIENTED_EDGE('',*,*,#105,.T.);
#139=ORIENTED_EDGE('',*,*,#104,.T.);
#140=ORIENTED_EDGE('',*,*,#102,.T.);
#141=ORIENTED_EDGE('',*,*,#101,.T.);
#142=ORIENTED_EDGE('',*,*,#105,.F.);
#143=ORIENTED_EDGE('',*,*,#106,.T.);
#144=ORIENTED_EDGE('',*,*,#107,.T.);
#145=ORIENTED_EDGE('',*,*,#107,.F.);
#146=ORIENTED_EDGE('',*,*,#108,.T.);
#147=ORIENTED_EDGE('',*,*,#109,.F.);
#148=ORIENTED_EDGE('',*,*,#110,.F.);
#149=ORIENTED_EDGE('',*,*,#111,.T.);
#150=ORIENTED_EDGE('',*,*,#112,.F.);
#151=ORIENTED_EDGE('',*,*,#113,.F.);
#152=ORIENTED_EDGE('',*,*,#111,.F.);
#153=ORIENTED_EDGE('',*,*,#112,.T.);
#154=ORIENTED_EDGE('',*,*,#114,.T.);
#155=ORIENTED_EDGE('',*,*,#106,.F.);
#156=ORIENTED_EDGE('',*,*,#108,.F.);
#157=ORIENTED_EDGE('',*,*,#114,.F.);
#158=ORIENTED_EDGE('',*,*,#113,.T.);
#159=ORIENTED_EDGE('',*,*,#93,.T.);
#160=ORIENTED_EDGE('',*,*,#94,.T.);
#161=ORIENTED_EDGE('',*,*,#109,.T.);
#162=ORIENTED_EDGE('',*,*,#110,.T.);
#163=CYLINDRICAL_SURFACE('',#200,6.);
#164=CYLINDRICAL_SURFACE('',#225,3.3235);
#165=STYLED_ITEM('',(#387),#171);
#166=STYLED_ITEM('',(#387),#172);
#167=STYLED_ITEM('',(#387),#173);
#168=STYLED_ITEM('',(#387),#174);
#169=STYLED_ITEM('',(#387),#175);
#170=STYLED_ITEM('',(#386),#13);
#171=ADVANCED_FACE('',(#23),#163,.F.);
#172=ADVANCED_FACE('',(#24),#22,.T.);
#173=ADVANCED_FACE('',(#25,#18),#20,.T.);
#174=ADVANCED_FACE('',(#26),#15,.T.);
#175=ADVANCED_FACE('',(#27),#14,.F.);
#176=ADVANCED_FACE('',(#28),#16,.F.);
#177=ADVANCED_FACE('',(#29),#17,.F.);
#178=ADVANCED_FACE('',(#30),#164,.F.);
#179=ADVANCED_FACE('',(#31,#19),#21,.T.);
#180=CLOSED_SHELL('',(#171,#172,#173,#174,#175,#176,#177,#178,#179));
#181=DERIVED_UNIT_ELEMENT(#183,1.);
#182=DERIVED_UNIT_ELEMENT(#372,3.);
#183=(
MASS_UNIT()
NAMED_UNIT(*)
SI_UNIT($,.GRAM.)
);
#184=DERIVED_UNIT((#181,#182));
#185=MEASURE_REPRESENTATION_ITEM('density measure',
POSITIVE_RATIO_MEASURE(1.),#184);
#186=PROPERTY_DEFINITION_REPRESENTATION(#191,#188);
#187=PROPERTY_DEFINITION_REPRESENTATION(#192,#189);
#188=REPRESENTATION('material name',(#190),#369);
#189=REPRESENTATION('density',(#185),#369);
#190=DESCRIPTIVE_REPRESENTATION_ITEM('Generic','Generic');
#191=PROPERTY_DEFINITION('material property','material name',#379);
#192=PROPERTY_DEFINITION('material property','density of part',#379);
#193=DATE_TIME_ROLE('creation_date');
#194=APPLIED_DATE_AND_TIME_ASSIGNMENT(#195,#193,(#379));
#195=DATE_AND_TIME(#196,#197);
#196=CALENDAR_DATE(2021,29,10);
#197=LOCAL_TIME(0,0,0.,#198);
#198=COORDINATED_UNIVERSAL_TIME_OFFSET(0,0,.BEHIND.);
#199=AXIS2_PLACEMENT_3D('placement',#288,#227,#228);
#200=AXIS2_PLACEMENT_3D('',#289,#229,#230);
#201=AXIS2_PLACEMENT_3D('',#291,#231,#232);
#202=AXIS2_PLACEMENT_3D('',#295,#234,#235);
#203=AXIS2_PLACEMENT_3D('',#296,#236,#237);
#204=AXIS2_PLACEMENT_3D('',#297,#238,#239);
#205=AXIS2_PLACEMENT_3D('',#300,#240,#241);
#206=AXIS2_PLACEMENT_3D('',#302,#242,#243);
#207=AXIS2_PLACEMENT_3D('',#304,#244,#245);
#208=AXIS2_PLACEMENT_3D('',#306,#246,#247);
#209=AXIS2_PLACEMENT_3D('',#307,#248,#249);
#210=AXIS2_PLACEMENT_3D('',#308,#250,#251);
#211=AXIS2_PLACEMENT_3D('',#309,#252,#253);
#212=AXIS2_PLACEMENT_3D('',#310,#254,#255);
#213=AXIS2_PLACEMENT_3D('',#313,#256,#257);
#214=AXIS2_PLACEMENT_3D('',#315,#258,#259);
#215=AXIS2_PLACEMENT_3D('',#317,#261,#262);
#216=AXIS2_PLACEMENT_3D('',#346,#263,#264);
#217=AXIS2_PLACEMENT_3D('',#347,#265,#266);
#218=AXIS2_PLACEMENT_3D('',#350,#267,#268);
#219=AXIS2_PLACEMENT_3D('',#353,#270,#271);
#220=AXIS2_PLACEMENT_3D('',#354,#272,#273);
#221=AXIS2_PLACEMENT_3D('',#357,#274,#275);
#222=AXIS2_PLACEMENT_3D('',#358,#276,#277);
#223=AXIS2_PLACEMENT_3D('',#362,#279,#280);
#224=AXIS2_PLACEMENT_3D('',#363,#281,#282);
#225=AXIS2_PLACEMENT_3D('',#364,#283,#284);
#226=AXIS2_PLACEMENT_3D('',#366,#286,#287);
#227=DIRECTION('axis',(0.,0.,1.));
#228=DIRECTION('refdir',(1.,0.,0.));
#229=DIRECTION('center_axis',(-1.30509616632102E-15,1.,5.19604067741609E-16));
#230=DIRECTION('ref_axis',(0.852699990438289,8.41413842987798E-16,0.522400924871445));
#231=DIRECTION('center_axis',(-1.30509616632102E-15,1.,5.19604067741609E-16));
#232=DIRECTION('ref_axis',(0.852699990438289,8.41413842987798E-16,0.522400924871445));
#233=DIRECTION('',(-1.30509616632102E-15,1.,5.19604067741609E-16));
#234=DIRECTION('center_axis',(0.,-1.,0.));
#235=DIRECTION('ref_axis',(1.,0.,0.));
#236=DIRECTION('center_axis',(0.,-1.,0.));
#237=DIRECTION('ref_axis',(1.,0.,0.));
#238=DIRECTION('center_axis',(-1.30509616632102E-15,1.,5.19604067741609E-16));
#239=DIRECTION('ref_axis',(0.522400924871445,1.12869389610214E-15,-0.852699990438289));
#240=DIRECTION('center_axis',(1.30509616632102E-15,-1.,-5.19604067741609E-16));
#241=DIRECTION('ref_axis',(0.852699990438289,8.41413842987798E-16,0.522400924871445));
#242=DIRECTION('center_axis',(1.30509616632102E-15,-1.,-5.19604067741609E-16));
#243=DIRECTION('ref_axis',(0.852699990438289,8.41413842987798E-16,0.522400924871445));
#244=DIRECTION('center_axis',(0.852699990438289,8.41413842987798E-16,0.522400924871445));
#245=DIRECTION('ref_axis',(-0.522400924871445,-1.1242849355705E-15,0.852699990438289));
#246=DIRECTION('center_axis',(-1.30509616632102E-15,1.,5.19604067741609E-16));
#247=DIRECTION('ref_axis',(0.852699990438289,8.41413842987798E-16,0.522400924871445));
#248=DIRECTION('center_axis',(-1.30509616632102E-15,1.,5.19604067741609E-16));
#249=DIRECTION('ref_axis',(0.852699990438289,8.41413842987798E-16,0.522400924871445));
#250=DIRECTION('center_axis',(1.30509616632102E-15,-1.,-5.19604067741609E-16));
#251=DIRECTION('ref_axis',(0.852699990438289,8.41413842987798E-16,0.522400924871445));
#252=DIRECTION('center_axis',(1.30509616632102E-15,-1.,-5.19604067741609E-16));
#253=DIRECTION('ref_axis',(-0.522400924871445,-1.12484982792724E-15,0.852699990438289));
#254=DIRECTION('center_axis',(1.30509616632102E-15,-1.,-5.19604067741609E-16));
#255=DIRECTION('ref_axis',(-0.852699990438289,-8.41413842987798E-16,-0.522400924871445));
#256=DIRECTION('center_axis',(-1.30509616632102E-15,1.,5.19604067741609E-16));
#257=DIRECTION('ref_axis',(-0.852699990438289,-8.41413842987798E-16,-0.522400924871445));
#258=DIRECTION('center_axis',(-1.30509616632102E-15,1.,5.19604067741609E-16));
#259=DIRECTION('ref_axis',(-0.852699990438289,-8.41413842987798E-16,-0.522400924871445));
#260=DIRECTION('',(0.0473030544949663,-0.998460107616634,0.0289798987856351));
#261=DIRECTION('center_axis',(-1.30509616632102E-15,1.,5.19604067741609E-16));
#262=DIRECTION('ref_axis',(-0.852699990438289,-8.41413842987798E-16,-0.522400924871445));
#263=DIRECTION('center_axis',(0.852699990438289,8.41413842987798E-16,0.522400924871445));
#264=DIRECTION('ref_axis',(-0.522400924871445,-1.1085160292349E-15,0.852699990438289));
#265=DIRECTION('center_axis',(0.,-1.,0.));
#266=DIRECTION('ref_axis',(1.,0.,0.));
#267=DIRECTION('center_axis',(0.,-1.,0.));
#268=DIRECTION('ref_axis',(1.,0.,0.));
#269=DIRECTION('',(0.857167300702112,0.515038074910054,1.04972719113862E-16));
#270=DIRECTION('center_axis',(0.,-1.,0.));
#271=DIRECTION('ref_axis',(1.,0.,0.));
#272=DIRECTION('center_axis',(0.,-1.,0.));
#273=DIRECTION('ref_axis',(1.,0.,0.));
#274=DIRECTION('center_axis',(0.,1.,0.));
#275=DIRECTION('ref_axis',(1.,0.,0.));
#276=DIRECTION('center_axis',(0.,1.,0.));
#277=DIRECTION('ref_axis',(1.,0.,0.));
#278=DIRECTION('',(0.707106781186547,0.707106781186548,8.65956056235493E-17));
#279=DIRECTION('center_axis',(0.,-1.,0.));
#280=DIRECTION('ref_axis',(1.,0.,0.));
#281=DIRECTION('center_axis',(0.,-1.,0.));
#282=DIRECTION('ref_axis',(1.,0.,0.));
#283=DIRECTION('center_axis',(0.,-1.,0.));
#284=DIRECTION('ref_axis',(1.,0.,0.));
#285=DIRECTION('',(0.,1.,0.));
#286=DIRECTION('center_axis',(0.,-1.,0.));
#287=DIRECTION('ref_axis',(0.,0.,-1.));
#288=CARTESIAN_POINT('',(0.,0.,0.));
#289=CARTESIAN_POINT('Origin',(2.18864888758044E-14,-0.500000000000005,
1.27490292469189E-14));
#290=CARTESIAN_POINT('',(-5.11619994262971,-0.500000000000009,-3.13440554922866));
#291=CARTESIAN_POINT('Origin',(2.18864888758044E-14,-0.500000000000005,
1.27490292469189E-14));
#292=CARTESIAN_POINT('',(-5.11619994262972,4.44089209850063E-15,-3.13440554922866));
#293=CARTESIAN_POINT('',(-5.11619994262971,-0.50000000000001,-3.13440554922866));
#294=CARTESIAN_POINT('',(6.,1.10214571844014E-15,0.));
#295=CARTESIAN_POINT('Origin',(0.,0.,0.));
#296=CARTESIAN_POINT('Origin',(0.,0.,0.));
#297=CARTESIAN_POINT('Origin',(2.05813927094834E-14,0.499999999999996,1.32686333146605E-14));
#298=CARTESIAN_POINT('',(-8.05064574317394,0.555474440043842,-4.93217406966865));
#299=CARTESIAN_POINT('',(8.05064574317399,0.555474440043858,4.93217406966867));
#300=CARTESIAN_POINT('Origin',(2.11129904008408E-14,0.55547444004385,1.23115708664166E-14));
#301=CARTESIAN_POINT('',(-4.93217406966864,0.55547444004384,8.05064574317398));
#302=CARTESIAN_POINT('Origin',(2.11129904008408E-14,0.55547444004385,1.23115708664166E-14));
#303=CARTESIAN_POINT('',(-4.41057758600246,-0.500000000000014,7.19925881895626));
#304=CARTESIAN_POINT('Origin',(-4.41057758600246,0.499999999999987,7.19925881895626));
#305=CARTESIAN_POINT('',(-7.19925881895622,-0.500000000000012,-4.41057758600247));
#306=CARTESIAN_POINT('Origin',(2.18864888758044E-14,-0.500000000000005,
1.27490292469189E-14));
#307=CARTESIAN_POINT('Origin',(2.18864888758044E-14,-0.500000000000005,
1.27490292469189E-14));
#308=CARTESIAN_POINT('Origin',(2.11129904008408E-14,0.55547444004385,1.23115708664166E-14));
#309=CARTESIAN_POINT('Origin',(-4.05032495458185,-0.500000000000009,-2.48140439313935));
#310=CARTESIAN_POINT('Origin',(1.60140255501504E-14,3.99964031555475,1.50870606582553E-14));
#311=CARTESIAN_POINT('',(-7.67429991394459,8.4992806311095,-4.70160832384299));
#312=CARTESIAN_POINT('',(-4.701608323843,8.4992806311095,7.67429991394462));
#313=CARTESIAN_POINT('Origin',(1.01415622244964E-14,8.49928063110951,1.74250920695916E-14));
#314=CARTESIAN_POINT('',(7.67429991394461,8.49928063110952,4.70160832384302));
#315=CARTESIAN_POINT('Origin',(1.01415622244964E-14,8.49928063110951,1.74250920695916E-14));
#316=CARTESIAN_POINT('',(7.88747491155419,3.99964031555476,4.83220855506088));
#317=CARTESIAN_POINT('Origin',(1.01415622244964E-14,8.49928063110951,1.74250920695916E-14));
#318=CARTESIAN_POINT('Ctrl Pts',(-4.701608323843,8.4992806311095,7.67429991394462));
#319=CARTESIAN_POINT('Ctrl Pts',(2.97269159010161,8.49928063110951,12.3759082377876));
#320=CARTESIAN_POINT('Ctrl Pts',(7.67429991394462,8.49928063110952,4.70160832384303));
#321=CARTESIAN_POINT('Ctrl Pts',(12.3759082377876,8.49928063110953,-2.97269159010158));
#322=CARTESIAN_POINT('Ctrl Pts',(4.70160832384302,8.49928063110952,-7.67429991394459));
#323=CARTESIAN_POINT('Ctrl Pts',(-2.97269159010159,8.49928063110951,-12.3759082377876));
#324=CARTESIAN_POINT('Ctrl Pts',(-7.6742999139446,8.4992806311095,-4.70160832384299));
#325=CARTESIAN_POINT('Ctrl Pts',(-12.3759082377876,8.49928063110949,2.97269159010161));
#326=CARTESIAN_POINT('Ctrl Pts',(-4.701608323843,8.4992806311095,7.67429991394462));
#327=CARTESIAN_POINT('Ctrl Pts',(-4.45449728812397,17.0131306325313,7.27094768433923));
#328=CARTESIAN_POINT('Ctrl Pts',(2.81645039621523,17.0131306325313,11.7254449724632));
#329=CARTESIAN_POINT('Ctrl Pts',(7.27094768433921,17.0131306325313,4.45449728812399));
#330=CARTESIAN_POINT('Ctrl Pts',(11.7254449724632,17.0131306325313,-2.81645039621521));
#331=CARTESIAN_POINT('Ctrl Pts',(4.45449728812397,17.0131306325313,-7.27094768433918));
#332=CARTESIAN_POINT('Ctrl Pts',(-2.81645039621524,17.0131306325313,-11.7254449724632));
#333=CARTESIAN_POINT('Ctrl Pts',(-7.27094768433921,17.0131306325313,-4.45449728812395));
#334=CARTESIAN_POINT('Ctrl Pts',(-11.7254449724632,17.0131306325313,2.81645039621526));
#335=CARTESIAN_POINT('Ctrl Pts',(-4.45449728812397,17.0131306325313,7.27094768433923));
#336=CARTESIAN_POINT('Ctrl Pts',(-1.4868860310474E-15,17.,2.27135624445794E-14));
#337=CARTESIAN_POINT('Ctrl Pts',(-6.15424018865007E-16,17.,2.32477544408134E-14));
#338=CARTESIAN_POINT('Ctrl Pts',(-8.12320226310097E-17,17.,2.2376292428631E-14));
#339=CARTESIAN_POINT('Ctrl Pts',(4.52959973602987E-16,17.,2.15048304164486E-14));
#340=CARTESIAN_POINT('Ctrl Pts',(-4.18502038579405E-16,17.,2.09706384202146E-14));
#341=CARTESIAN_POINT('Ctrl Pts',(-1.2899640507618E-15,17.,2.04364464239806E-14));
#342=CARTESIAN_POINT('Ctrl Pts',(-1.82415604699579E-15,17.,2.1307908436163E-14));
#343=CARTESIAN_POINT('Ctrl Pts',(-2.35834804322979E-15,17.,2.21793704483454E-14));
#344=CARTESIAN_POINT('Ctrl Pts',(-1.4868860310474E-15,17.,2.27135624445794E-14));
#345=CARTESIAN_POINT('',(-9.52694034813397E-16,17.,2.1842100432397E-14));
#346=CARTESIAN_POINT('Origin',(-0.00723997084744523,8.00001067071481,0.0118175959851668));
#347=CARTESIAN_POINT('Origin',(0.,10.998480133669,0.));
#348=CARTESIAN_POINT('',(3.3235,10.,0.));
#349=CARTESIAN_POINT('',(-3.3235,10.,-4.07011363696623E-16));
#350=CARTESIAN_POINT('Origin',(0.,10.,0.));
#351=CARTESIAN_POINT('',(0.,11.9969602673381,0.));
#352=CARTESIAN_POINT('',(-1.66175,10.998480133669,-2.03505681848311E-16));
#353=CARTESIAN_POINT('Origin',(0.,10.,0.));
#354=CARTESIAN_POINT('Origin',(0.,0.16325,0.));
#355=CARTESIAN_POINT('',(3.65,5.5107285922007E-16,0.));
#356=CARTESIAN_POINT('',(-3.65,2.77555756156289E-16,-4.46996081688784E-16));
#357=CARTESIAN_POINT('Origin',(0.,5.55111512312578E-16,0.));
#358=CARTESIAN_POINT('Origin',(0.,5.55111512312578E-16,0.));
#359=CARTESIAN_POINT('',(-3.3235,0.3265,-4.07011363696623E-16));
#360=CARTESIAN_POINT('',(-3.48675,0.16325,-4.27003722692703E-16));
#361=CARTESIAN_POINT('',(3.3235,0.3265,0.));
#362=CARTESIAN_POINT('Origin',(0.,0.3265,0.));
#363=CARTESIAN_POINT('Origin',(0.,0.3265,0.));
#364=CARTESIAN_POINT('Origin',(0.,5.,0.));
#365=CARTESIAN_POINT('',(-3.3235,5.,-4.07011363696623E-16));
#366=CARTESIAN_POINT('Origin',(3.,5.5107285922007E-16,0.));
#367=UNCERTAINTY_MEASURE_WITH_UNIT(LENGTH_MEASURE(0.01),#371,
'DISTANCE_ACCURACY_VALUE',
'Maximum model space distance between geometric entities at asserted c
onnectivities');
#368=UNCERTAINTY_MEASURE_WITH_UNIT(LENGTH_MEASURE(0.01),#371,
'DISTANCE_ACCURACY_VALUE',
'Maximum model space distance between geometric entities at asserted c
onnectivities');
#369=(
GEOMETRIC_REPRESENTATION_CONTEXT(3)
GLOBAL_UNCERTAINTY_ASSIGNED_CONTEXT((#367))
GLOBAL_UNIT_ASSIGNED_CONTEXT((#371,#373,#374))
REPRESENTATION_CONTEXT('','3D')
);
#370=(
GEOMETRIC_REPRESENTATION_CONTEXT(3)
GLOBAL_UNCERTAINTY_ASSIGNED_CONTEXT((#368))
GLOBAL_UNIT_ASSIGNED_CONTEXT((#371,#373,#374))
REPRESENTATION_CONTEXT('','3D')
);
#371=(
LENGTH_UNIT()
NAMED_UNIT(*)
SI_UNIT(.MILLI.,.METRE.)
);
#372=(
LENGTH_UNIT()
NAMED_UNIT(*)
SI_UNIT(.CENTI.,.METRE.)
);
#373=(
NAMED_UNIT(*)
PLANE_ANGLE_UNIT()
SI_UNIT($,.RADIAN.)
);
#374=(
NAMED_UNIT(*)
SI_UNIT($,.STERADIAN.)
SOLID_ANGLE_UNIT()
);
#375=SHAPE_DEFINITION_REPRESENTATION(#376,#377);
#376=PRODUCT_DEFINITION_SHAPE('',$,#379);
#377=SHAPE_REPRESENTATION('',(#199),#369);
#378=PRODUCT_DEFINITION_CONTEXT('part definition',#383,'design');
#379=PRODUCT_DEFINITION('NR8','NR8',#380,#378);
#380=PRODUCT_DEFINITION_FORMATION('',$,#385);
#381=PRODUCT_RELATED_PRODUCT_CATEGORY('NR8','NR8',(#385));
#382=APPLICATION_PROTOCOL_DEFINITION('international standard',
'automotive_design',2009,#383);
#383=APPLICATION_CONTEXT(
'Core Data for Automotive Mechanical Design Process');
#384=PRODUCT_CONTEXT('part definition',#383,'mechanical');
#385=PRODUCT('NR8','NR8',$,(#384));
#386=PRESENTATION_STYLE_ASSIGNMENT((#388));
#387=PRESENTATION_STYLE_ASSIGNMENT((#389));
#388=SURFACE_STYLE_USAGE(.BOTH.,#392);
#389=SURFACE_STYLE_USAGE(.BOTH.,#393);
#390=SURFACE_STYLE_RENDERING_WITH_PROPERTIES($,#400,(#391));
#391=SURFACE_STYLE_TRANSPARENT(0.);
#392=SURFACE_SIDE_STYLE('',(#394,#390));
#393=SURFACE_SIDE_STYLE('',(#395));
#394=SURFACE_STYLE_FILL_AREA(#396);
#395=SURFACE_STYLE_FILL_AREA(#397);
#396=FILL_AREA_STYLE('',(#398));
#397=FILL_AREA_STYLE('',(#399));
#398=FILL_AREA_STYLE_COLOUR('',#400);
#399=FILL_AREA_STYLE_COLOUR('',#401);
#400=COLOUR_RGB('',0.749019607843137,0.749019607843137,0.749019607843137);
#401=COLOUR_RGB('',0.113725490196078,0.113725490196078,0.113725490196078);
ENDSEC;
END-ISO-10303-21;
