ISO-10303-21;
HEADER;
/* Generated by software containing ST-Developer
 * from STEP Tools, Inc. (www.steptools.com) 
 */

FILE_DESCRIPTION(
/* description */ ('SLIDER'),
/* implementation_level */ '2;1');

FILE_NAME(
/* name */ 'C:\\TEMP\\RW11.stp',
/* time_stamp */ '2021-10-21T15:12:26+01:00',
/* author */ ('Sandfield Engineering'),
/* organization */ ('Sandfield Engineering'),
/* preprocessor_version */ 'ST-DEVELOPER v18.1',
/* originating_system */ 'Autodesk Inventor 2021',
/* authorisation */ '');

FILE_SCHEMA (('AUTOMOTIVE_DESIGN { 1 0 10303 214 3 1 1 }'));
ENDSEC;

DATA;
#10=MECHANICAL_DESIGN_GEOMETRIC_PRESENTATION_REPRESENTATION('',(#13),#510);
#11=SHAPE_REPRESENTATION_RELATIONSHIP('SRR','None',#517,#12);
#12=ADVANCED_BREP_SHAPE_REPRESENTATION('',(#14),#509);
#13=STYLED_ITEM('',(#526),#14);
#14=MANIFOLD_SOLID_BREP('Solid1',#295);
#15=FACE_BOUND('',#45,.T.);
#16=FACE_BOUND('',#49,.T.);
#17=PLANE('',#321);
#18=PLANE('',#330);
#19=PLANE('',#333);
#20=PLANE('',#334);
#21=PLANE('',#335);
#22=PLANE('',#336);
#23=PLANE('',#337);
#24=PLANE('',#338);
#25=PLANE('',#339);
#26=PLANE('',#340);
#27=FACE_OUTER_BOUND('',#42,.T.);
#28=FACE_OUTER_BOUND('',#43,.T.);
#29=FACE_OUTER_BOUND('',#44,.T.);
#30=FACE_OUTER_BOUND('',#46,.T.);
#31=FACE_OUTER_BOUND('',#47,.T.);
#32=FACE_OUTER_BOUND('',#48,.T.);
#33=FACE_OUTER_BOUND('',#50,.T.);
#34=FACE_OUTER_BOUND('',#51,.T.);
#35=FACE_OUTER_BOUND('',#52,.T.);
#36=FACE_OUTER_BOUND('',#53,.T.);
#37=FACE_OUTER_BOUND('',#54,.T.);
#38=FACE_OUTER_BOUND('',#55,.T.);
#39=FACE_OUTER_BOUND('',#56,.T.);
#40=FACE_OUTER_BOUND('',#57,.T.);
#41=FACE_OUTER_BOUND('',#58,.T.);
#42=EDGE_LOOP('',(#195,#196,#197,#198));
#43=EDGE_LOOP('',(#199,#200,#201,#202));
#44=EDGE_LOOP('',(#203,#204,#205,#206));
#45=EDGE_LOOP('',(#207,#208));
#46=EDGE_LOOP('',(#209,#210,#211,#212));
#47=EDGE_LOOP('',(#213,#214,#215,#216));
#48=EDGE_LOOP('',(#217,#218,#219,#220));
#49=EDGE_LOOP('',(#221));
#50=EDGE_LOOP('',(#222,#223,#224,#225,#226));
#51=EDGE_LOOP('',(#227,#228,#229,#230));
#52=EDGE_LOOP('',(#231,#232,#233,#234));
#53=EDGE_LOOP('',(#235,#236,#237,#238));
#54=EDGE_LOOP('',(#239,#240,#241,#242,#243,#244,#245,#246,#247,#248,#249,
#250));
#55=EDGE_LOOP('',(#251,#252,#253,#254));
#56=EDGE_LOOP('',(#255,#256,#257,#258));
#57=EDGE_LOOP('',(#259,#260,#261,#262,#263,#264,#265,#266,#267,#268,#269,
#270));
#58=EDGE_LOOP('',(#271,#272,#273,#274));
#59=LINE('',#430,#88);
#60=LINE('',#433,#89);
#61=LINE('',#439,#90);
#62=LINE('',#442,#91);
#63=LINE('',#445,#92);
#64=LINE('',#447,#93);
#65=LINE('',#448,#94);
#66=LINE('',#458,#95);
#67=LINE('',#461,#96);
#68=LINE('',#467,#97);
#69=LINE('',#469,#98);
#70=LINE('',#470,#99);
#71=LINE('',#474,#100);
#72=LINE('',#477,#101);
#73=LINE('',#479,#102);
#74=LINE('',#480,#103);
#75=LINE('',#483,#104);
#76=LINE('',#485,#105);
#77=LINE('',#486,#106);
#78=LINE('',#488,#107);
#79=LINE('',#489,#108);
#80=LINE('',#492,#109);
#81=LINE('',#494,#110);
#82=LINE('',#495,#111);
#83=LINE('',#498,#112);
#84=LINE('',#500,#113);
#85=LINE('',#501,#114);
#86=LINE('',#503,#115);
#87=LINE('',#505,#116);
#88=VECTOR('',#347,10.);
#89=VECTOR('',#350,10.);
#90=VECTOR('',#355,10.);
#91=VECTOR('',#358,10.);
#92=VECTOR('',#361,10.);
#93=VECTOR('',#362,10.);
#94=VECTOR('',#363,10.);
#95=VECTOR('',#372,10.);
#96=VECTOR('',#375,10.);
#97=VECTOR('',#382,10.);
#98=VECTOR('',#385,10.);
#99=VECTOR('',#386,10.);
#100=VECTOR('',#391,2.6);
#101=VECTOR('',#394,10.);
#102=VECTOR('',#395,10.);
#103=VECTOR('',#396,10.);
#104=VECTOR('',#399,10.);
#105=VECTOR('',#400,10.);
#106=VECTOR('',#401,10.);
#107=VECTOR('',#404,10.);
#108=VECTOR('',#405,10.);
#109=VECTOR('',#408,10.);
#110=VECTOR('',#409,10.);
#111=VECTOR('',#410,10.);
#112=VECTOR('',#413,10.);
#113=VECTOR('',#414,10.);
#114=VECTOR('',#415,10.);
#115=VECTOR('',#418,10.);
#116=VECTOR('',#421,10.);
#117=CIRCLE('',#316,2.);
#118=CIRCLE('',#317,2.);
#119=CIRCLE('',#319,1.);
#120=CIRCLE('',#320,1.);
#121=CIRCLE('',#322,2.6);
#122=CIRCLE('',#323,2.6);
#123=CIRCLE('',#325,2.);
#124=CIRCLE('',#326,2.);
#125=CIRCLE('',#328,1.);
#126=CIRCLE('',#329,1.);
#127=CIRCLE('',#331,2.6);
#128=VERTEX_POINT('',#426);
#129=VERTEX_POINT('',#427);
#130=VERTEX_POINT('',#429);
#131=VERTEX_POINT('',#431);
#132=VERTEX_POINT('',#435);
#133=VERTEX_POINT('',#436);
#134=VERTEX_POINT('',#438);
#135=VERTEX_POINT('',#440);
#136=VERTEX_POINT('',#444);
#137=VERTEX_POINT('',#446);
#138=VERTEX_POINT('',#449);
#139=VERTEX_POINT('',#450);
#140=VERTEX_POINT('',#454);
#141=VERTEX_POINT('',#455);
#142=VERTEX_POINT('',#457);
#143=VERTEX_POINT('',#459);
#144=VERTEX_POINT('',#463);
#145=VERTEX_POINT('',#465);
#146=VERTEX_POINT('',#471);
#147=VERTEX_POINT('',#476);
#148=VERTEX_POINT('',#478);
#149=VERTEX_POINT('',#482);
#150=VERTEX_POINT('',#484);
#151=VERTEX_POINT('',#491);
#152=VERTEX_POINT('',#493);
#153=VERTEX_POINT('',#497);
#154=VERTEX_POINT('',#499);
#155=EDGE_CURVE('',#128,#129,#117,.T.);
#156=EDGE_CURVE('',#130,#129,#59,.T.);
#157=EDGE_CURVE('',#130,#131,#118,.T.);
#158=EDGE_CURVE('',#128,#131,#60,.T.);
#159=EDGE_CURVE('',#132,#133,#119,.T.);
#160=EDGE_CURVE('',#134,#133,#61,.T.);
#161=EDGE_CURVE('',#134,#135,#120,.T.);
#162=EDGE_CURVE('',#132,#135,#62,.T.);
#163=EDGE_CURVE('',#136,#133,#63,.T.);
#164=EDGE_CURVE('',#136,#137,#64,.T.);
#165=EDGE_CURVE('',#134,#137,#65,.T.);
#166=EDGE_CURVE('',#138,#139,#121,.T.);
#167=EDGE_CURVE('',#139,#138,#122,.T.);
#168=EDGE_CURVE('',#140,#141,#123,.T.);
#169=EDGE_CURVE('',#142,#141,#66,.T.);
#170=EDGE_CURVE('',#142,#143,#124,.T.);
#171=EDGE_CURVE('',#140,#143,#67,.T.);
#172=EDGE_CURVE('',#144,#137,#125,.T.);
#173=EDGE_CURVE('',#136,#145,#126,.T.);
#174=EDGE_CURVE('',#144,#145,#68,.T.);
#175=EDGE_CURVE('',#140,#131,#69,.T.);
#176=EDGE_CURVE('',#128,#143,#70,.T.);
#177=EDGE_CURVE('',#146,#146,#127,.T.);
#178=EDGE_CURVE('',#139,#146,#71,.T.);
#179=EDGE_CURVE('',#147,#141,#72,.T.);
#180=EDGE_CURVE('',#148,#147,#73,.T.);
#181=EDGE_CURVE('',#142,#148,#74,.T.);
#182=EDGE_CURVE('',#149,#147,#75,.T.);
#183=EDGE_CURVE('',#149,#150,#76,.T.);
#184=EDGE_CURVE('',#150,#148,#77,.T.);
#185=EDGE_CURVE('',#150,#145,#78,.T.);
#186=EDGE_CURVE('',#144,#149,#79,.T.);
#187=EDGE_CURVE('',#132,#151,#80,.T.);
#188=EDGE_CURVE('',#151,#152,#81,.T.);
#189=EDGE_CURVE('',#152,#129,#82,.T.);
#190=EDGE_CURVE('',#153,#152,#83,.T.);
#191=EDGE_CURVE('',#151,#154,#84,.T.);
#192=EDGE_CURVE('',#154,#153,#85,.T.);
#193=EDGE_CURVE('',#130,#153,#86,.T.);
#194=EDGE_CURVE('',#154,#135,#87,.T.);
#195=ORIENTED_EDGE('',*,*,#155,.T.);
#196=ORIENTED_EDGE('',*,*,#156,.F.);
#197=ORIENTED_EDGE('',*,*,#157,.T.);
#198=ORIENTED_EDGE('',*,*,#158,.F.);
#199=ORIENTED_EDGE('',*,*,#159,.T.);
#200=ORIENTED_EDGE('',*,*,#160,.F.);
#201=ORIENTED_EDGE('',*,*,#161,.T.);
#202=ORIENTED_EDGE('',*,*,#162,.F.);
#203=ORIENTED_EDGE('',*,*,#160,.T.);
#204=ORIENTED_EDGE('',*,*,#163,.F.);
#205=ORIENTED_EDGE('',*,*,#164,.T.);
#206=ORIENTED_EDGE('',*,*,#165,.F.);
#207=ORIENTED_EDGE('',*,*,#166,.T.);
#208=ORIENTED_EDGE('',*,*,#167,.T.);
#209=ORIENTED_EDGE('',*,*,#168,.T.);
#210=ORIENTED_EDGE('',*,*,#169,.F.);
#211=ORIENTED_EDGE('',*,*,#170,.T.);
#212=ORIENTED_EDGE('',*,*,#171,.F.);
#213=ORIENTED_EDGE('',*,*,#172,.T.);
#214=ORIENTED_EDGE('',*,*,#164,.F.);
#215=ORIENTED_EDGE('',*,*,#173,.T.);
#216=ORIENTED_EDGE('',*,*,#174,.F.);
#217=ORIENTED_EDGE('',*,*,#158,.T.);
#218=ORIENTED_EDGE('',*,*,#175,.F.);
#219=ORIENTED_EDGE('',*,*,#171,.T.);
#220=ORIENTED_EDGE('',*,*,#176,.F.);
#221=ORIENTED_EDGE('',*,*,#177,.T.);
#222=ORIENTED_EDGE('',*,*,#166,.F.);
#223=ORIENTED_EDGE('',*,*,#167,.F.);
#224=ORIENTED_EDGE('',*,*,#178,.T.);
#225=ORIENTED_EDGE('',*,*,#177,.F.);
#226=ORIENTED_EDGE('',*,*,#178,.F.);
#227=ORIENTED_EDGE('',*,*,#169,.T.);
#228=ORIENTED_EDGE('',*,*,#179,.F.);
#229=ORIENTED_EDGE('',*,*,#180,.F.);
#230=ORIENTED_EDGE('',*,*,#181,.F.);
#231=ORIENTED_EDGE('',*,*,#180,.T.);
#232=ORIENTED_EDGE('',*,*,#182,.F.);
#233=ORIENTED_EDGE('',*,*,#183,.T.);
#234=ORIENTED_EDGE('',*,*,#184,.T.);
#235=ORIENTED_EDGE('',*,*,#174,.T.);
#236=ORIENTED_EDGE('',*,*,#185,.F.);
#237=ORIENTED_EDGE('',*,*,#183,.F.);
#238=ORIENTED_EDGE('',*,*,#186,.F.);
#239=ORIENTED_EDGE('',*,*,#187,.T.);
#240=ORIENTED_EDGE('',*,*,#188,.T.);
#241=ORIENTED_EDGE('',*,*,#189,.T.);
#242=ORIENTED_EDGE('',*,*,#155,.F.);
#243=ORIENTED_EDGE('',*,*,#176,.T.);
#244=ORIENTED_EDGE('',*,*,#170,.F.);
#245=ORIENTED_EDGE('',*,*,#181,.T.);
#246=ORIENTED_EDGE('',*,*,#184,.F.);
#247=ORIENTED_EDGE('',*,*,#185,.T.);
#248=ORIENTED_EDGE('',*,*,#173,.F.);
#249=ORIENTED_EDGE('',*,*,#163,.T.);
#250=ORIENTED_EDGE('',*,*,#159,.F.);
#251=ORIENTED_EDGE('',*,*,#190,.T.);
#252=ORIENTED_EDGE('',*,*,#188,.F.);
#253=ORIENTED_EDGE('',*,*,#191,.T.);
#254=ORIENTED_EDGE('',*,*,#192,.T.);
#255=ORIENTED_EDGE('',*,*,#156,.T.);
#256=ORIENTED_EDGE('',*,*,#189,.F.);
#257=ORIENTED_EDGE('',*,*,#190,.F.);
#258=ORIENTED_EDGE('',*,*,#193,.F.);
#259=ORIENTED_EDGE('',*,*,#193,.T.);
#260=ORIENTED_EDGE('',*,*,#192,.F.);
#261=ORIENTED_EDGE('',*,*,#194,.T.);
#262=ORIENTED_EDGE('',*,*,#161,.F.);
#263=ORIENTED_EDGE('',*,*,#165,.T.);
#264=ORIENTED_EDGE('',*,*,#172,.F.);
#265=ORIENTED_EDGE('',*,*,#186,.T.);
#266=ORIENTED_EDGE('',*,*,#182,.T.);
#267=ORIENTED_EDGE('',*,*,#179,.T.);
#268=ORIENTED_EDGE('',*,*,#168,.F.);
#269=ORIENTED_EDGE('',*,*,#175,.T.);
#270=ORIENTED_EDGE('',*,*,#157,.F.);
#271=ORIENTED_EDGE('',*,*,#162,.T.);
#272=ORIENTED_EDGE('',*,*,#194,.F.);
#273=ORIENTED_EDGE('',*,*,#191,.F.);
#274=ORIENTED_EDGE('',*,*,#187,.F.);
#275=CYLINDRICAL_SURFACE('',#315,2.);
#276=CYLINDRICAL_SURFACE('',#318,1.);
#277=CYLINDRICAL_SURFACE('',#324,2.);
#278=CYLINDRICAL_SURFACE('',#327,1.);
#279=CYLINDRICAL_SURFACE('',#332,2.6);
#280=ADVANCED_FACE('',(#27),#275,.T.);
#281=ADVANCED_FACE('',(#28),#276,.F.);
#282=ADVANCED_FACE('',(#29,#15),#17,.F.);
#283=ADVANCED_FACE('',(#30),#277,.T.);
#284=ADVANCED_FACE('',(#31),#278,.F.);
#285=ADVANCED_FACE('',(#32,#16),#18,.T.);
#286=ADVANCED_FACE('',(#33),#279,.F.);
#287=ADVANCED_FACE('',(#34),#19,.T.);
#288=ADVANCED_FACE('',(#35),#20,.T.);
#289=ADVANCED_FACE('',(#36),#21,.F.);
#290=ADVANCED_FACE('',(#37),#22,.T.);
#291=ADVANCED_FACE('',(#38),#23,.T.);
#292=ADVANCED_FACE('',(#39),#24,.T.);
#293=ADVANCED_FACE('',(#40),#25,.T.);
#294=ADVANCED_FACE('',(#41),#26,.F.);
#295=CLOSED_SHELL('',(#280,#281,#282,#283,#284,#285,#286,#287,#288,#289,
#290,#291,#292,#293,#294));
#296=DERIVED_UNIT_ELEMENT(#298,1.);
#297=DERIVED_UNIT_ELEMENT(#512,3.);
#298=(
MASS_UNIT()
NAMED_UNIT(*)
SI_UNIT($,.GRAM.)
);
#299=DERIVED_UNIT((#296,#297));
#300=MEASURE_REPRESENTATION_ITEM('density measure',
POSITIVE_RATIO_MEASURE(7.85),#299);
#301=PROPERTY_DEFINITION_REPRESENTATION(#306,#303);
#302=PROPERTY_DEFINITION_REPRESENTATION(#307,#304);
#303=REPRESENTATION('material name',(#305),#509);
#304=REPRESENTATION('density',(#300),#509);
#305=DESCRIPTIVE_REPRESENTATION_ITEM('Steel, Mild','Steel, Mild');
#306=PROPERTY_DEFINITION('material property','material name',#519);
#307=PROPERTY_DEFINITION('material property','density of part',#519);
#308=DATE_TIME_ROLE('creation_date');
#309=APPLIED_DATE_AND_TIME_ASSIGNMENT(#310,#308,(#519));
#310=DATE_AND_TIME(#311,#312);
#311=CALENDAR_DATE(2007,28,11);
#312=LOCAL_TIME(0,0,0.,#313);
#313=COORDINATED_UNIVERSAL_TIME_OFFSET(0,0,.BEHIND.);
#314=AXIS2_PLACEMENT_3D('placement',#424,#341,#342);
#315=AXIS2_PLACEMENT_3D('',#425,#343,#344);
#316=AXIS2_PLACEMENT_3D('',#428,#345,#346);
#317=AXIS2_PLACEMENT_3D('',#432,#348,#349);
#318=AXIS2_PLACEMENT_3D('',#434,#351,#352);
#319=AXIS2_PLACEMENT_3D('',#437,#353,#354);
#320=AXIS2_PLACEMENT_3D('',#441,#356,#357);
#321=AXIS2_PLACEMENT_3D('',#443,#359,#360);
#322=AXIS2_PLACEMENT_3D('',#451,#364,#365);
#323=AXIS2_PLACEMENT_3D('',#452,#366,#367);
#324=AXIS2_PLACEMENT_3D('',#453,#368,#369);
#325=AXIS2_PLACEMENT_3D('',#456,#370,#371);
#326=AXIS2_PLACEMENT_3D('',#460,#373,#374);
#327=AXIS2_PLACEMENT_3D('',#462,#376,#377);
#328=AXIS2_PLACEMENT_3D('',#464,#378,#379);
#329=AXIS2_PLACEMENT_3D('',#466,#380,#381);
#330=AXIS2_PLACEMENT_3D('',#468,#383,#384);
#331=AXIS2_PLACEMENT_3D('',#472,#387,#388);
#332=AXIS2_PLACEMENT_3D('',#473,#389,#390);
#333=AXIS2_PLACEMENT_3D('',#475,#392,#393);
#334=AXIS2_PLACEMENT_3D('',#481,#397,#398);
#335=AXIS2_PLACEMENT_3D('',#487,#402,#403);
#336=AXIS2_PLACEMENT_3D('',#490,#406,#407);
#337=AXIS2_PLACEMENT_3D('',#496,#411,#412);
#338=AXIS2_PLACEMENT_3D('',#502,#416,#417);
#339=AXIS2_PLACEMENT_3D('',#504,#419,#420);
#340=AXIS2_PLACEMENT_3D('',#506,#422,#423);
#341=DIRECTION('axis',(0.,0.,1.));
#342=DIRECTION('refdir',(1.,0.,0.));
#343=DIRECTION('center_axis',(-2.22044604925032E-16,1.,0.));
#344=DIRECTION('ref_axis',(0.,0.,1.));
#345=DIRECTION('center_axis',(2.97253339880349E-16,1.,2.97253339880405E-16));
#346=DIRECTION('ref_axis',(0.,0.,1.));
#347=DIRECTION('',(2.22044604925032E-16,-1.,0.));
#348=DIRECTION('center_axis',(-5.33497380039987E-16,-1.,-5.33497380039989E-16));
#349=DIRECTION('ref_axis',(0.,0.,1.));
#350=DIRECTION('',(-2.22044604925032E-16,1.,0.));
#351=DIRECTION('center_axis',(-2.22044604925032E-16,1.,0.));
#352=DIRECTION('ref_axis',(0.,0.,1.));
#353=DIRECTION('center_axis',(-2.97253339880349E-16,-1.,-2.97253339880405E-16));
#354=DIRECTION('ref_axis',(0.,0.,1.));
#355=DIRECTION('',(2.22044604925032E-16,-1.,0.));
#356=DIRECTION('center_axis',(5.33497380039987E-16,1.,5.33497380039989E-16));
#357=DIRECTION('ref_axis',(0.,0.,1.));
#358=DIRECTION('',(-2.22044604925032E-16,1.,0.));
#359=DIRECTION('center_axis',(0.,0.,1.));
#360=DIRECTION('ref_axis',(1.,0.,0.));
#361=DIRECTION('',(1.,0.,0.));
#362=DIRECTION('',(-1.11022302462516E-16,1.,0.));
#363=DIRECTION('',(-1.,0.,0.));
#364=DIRECTION('center_axis',(0.,0.,1.));
#365=DIRECTION('ref_axis',(1.,0.,0.));
#366=DIRECTION('center_axis',(0.,0.,1.));
#367=DIRECTION('ref_axis',(1.,0.,0.));
#368=DIRECTION('center_axis',(1.11022302462516E-16,-1.,0.));
#369=DIRECTION('ref_axis',(0.,0.,1.));
#370=DIRECTION('center_axis',(1.34010020956864E-15,-1.,1.87359758960863E-15));
#371=DIRECTION('ref_axis',(0.,0.,1.));
#372=DIRECTION('',(-1.11022302462516E-16,1.,1.23259516440783E-32));
#373=DIRECTION('center_axis',(-2.57545332207825E-15,1.,-2.1921409011667E-15));
#374=DIRECTION('ref_axis',(0.,0.,1.));
#375=DIRECTION('',(1.11022302462516E-16,-1.,0.));
#376=DIRECTION('center_axis',(1.11022302462516E-16,-1.,0.));
#377=DIRECTION('ref_axis',(0.,0.,1.));
#378=DIRECTION('center_axis',(-1.34010020956864E-15,1.,-1.87359758960863E-15));
#379=DIRECTION('ref_axis',(0.,0.,1.));
#380=DIRECTION('center_axis',(2.57545332207825E-15,-1.,2.1921409011667E-15));
#381=DIRECTION('ref_axis',(0.,0.,1.));
#382=DIRECTION('',(1.11022302462516E-16,-1.,-1.23259516440783E-32));
#383=DIRECTION('center_axis',(0.,0.,1.));
#384=DIRECTION('ref_axis',(1.,0.,0.));
#385=DIRECTION('',(1.,0.,0.));
#386=DIRECTION('',(-1.,0.,0.));
#387=DIRECTION('center_axis',(0.,0.,-1.));
#388=DIRECTION('ref_axis',(1.,0.,0.));
#389=DIRECTION('center_axis',(0.,0.,1.));
#390=DIRECTION('ref_axis',(1.,0.,0.));
#391=DIRECTION('',(0.,0.,1.));
#392=DIRECTION('center_axis',(-1.,-1.11022302462516E-16,2.22044604925031E-16));
#393=DIRECTION('ref_axis',(2.22044604925031E-16,-1.11022302462516E-16,1.));
#394=DIRECTION('',(2.22044604925031E-16,-1.11022302462516E-16,1.));
#395=DIRECTION('',(-1.11022302462516E-16,1.,1.11022302462516E-16));
#396=DIRECTION('',(-2.22044604925031E-16,1.11022302462516E-16,-1.));
#397=DIRECTION('center_axis',(-2.22044604925031E-16,1.11022302462516E-16,
-1.));
#398=DIRECTION('ref_axis',(-1.,-1.11022302462516E-16,2.22044604925031E-16));
#399=DIRECTION('',(-1.,-1.11022302462516E-16,2.22044604925031E-16));
#400=DIRECTION('',(1.11022302462516E-16,-1.,-1.11022302462516E-16));
#401=DIRECTION('',(-1.,-1.11022302462516E-16,2.22044604925031E-16));
#402=DIRECTION('center_axis',(-1.,-1.11022302462516E-16,2.22044604925031E-16));
#403=DIRECTION('ref_axis',(2.22044604925031E-16,-1.11022302462516E-16,1.));
#404=DIRECTION('',(2.22044604925031E-16,-1.11022302462516E-16,1.));
#405=DIRECTION('',(-2.22044604925031E-16,1.11022302462516E-16,-1.));
#406=DIRECTION('center_axis',(1.11022302462516E-16,-1.,1.11022302462516E-16));
#407=DIRECTION('ref_axis',(-2.46519032881566E-32,-1.11022302462516E-16,
-1.));
#408=DIRECTION('',(2.22044604925031E-16,-2.22044604925032E-16,-1.));
#409=DIRECTION('',(1.,2.22044604925032E-16,2.22044604925031E-16));
#410=DIRECTION('',(-2.22044604925031E-16,2.22044604925032E-16,1.));
#411=DIRECTION('center_axis',(2.22044604925031E-16,-2.22044604925032E-16,
-1.));
#412=DIRECTION('ref_axis',(-1.,-2.22044604925032E-16,-2.22044604925031E-16));
#413=DIRECTION('',(2.22044604925032E-16,-1.,2.22044604925032E-16));
#414=DIRECTION('',(-2.22044604925032E-16,1.,-2.22044604925032E-16));
#415=DIRECTION('',(1.,2.22044604925032E-16,2.22044604925031E-16));
#416=DIRECTION('center_axis',(1.,2.22044604925032E-16,2.22044604925031E-16));
#417=DIRECTION('ref_axis',(2.22044604925031E-16,-2.22044604925032E-16,-1.));
#418=DIRECTION('',(2.22044604925031E-16,-2.22044604925032E-16,-1.));
#419=DIRECTION('center_axis',(-1.11022302462516E-16,1.,-1.11022302462516E-16));
#420=DIRECTION('ref_axis',(2.46519032881566E-32,1.11022302462516E-16,1.));
#421=DIRECTION('',(-2.22044604925031E-16,2.22044604925032E-16,1.));
#422=DIRECTION('center_axis',(1.,2.22044604925032E-16,2.22044604925031E-16));
#423=DIRECTION('ref_axis',(2.22044604925031E-16,-2.22044604925032E-16,-1.));
#424=CARTESIAN_POINT('',(0.,0.,0.));
#425=CARTESIAN_POINT('Origin',(4.11902664470767,0.,-1.));
#426=CARTESIAN_POINT('',(4.11902664470768,-5.,1.));
#427=CARTESIAN_POINT('',(6.11902664470768,-5.,-1.));
#428=CARTESIAN_POINT('Origin',(4.11902664470768,-5.,-1.));
#429=CARTESIAN_POINT('',(6.11902664470767,5.,-1.));
#430=CARTESIAN_POINT('',(6.11902664470767,2.5,-1.));
#431=CARTESIAN_POINT('',(4.11902664470767,5.,1.));
#432=CARTESIAN_POINT('Origin',(4.11902664470767,5.,-1.));
#433=CARTESIAN_POINT('',(4.11902664470768,-2.5,1.));
#434=CARTESIAN_POINT('Origin',(4.11902664470767,0.,-1.));
#435=CARTESIAN_POINT('',(5.11902664470768,-5.,-1.));
#436=CARTESIAN_POINT('',(4.11902664470768,-5.,0.));
#437=CARTESIAN_POINT('Origin',(4.11902664470768,-5.,-1.));
#438=CARTESIAN_POINT('',(4.11902664470767,5.,0.));
#439=CARTESIAN_POINT('',(4.11902664470768,-2.5,0.));
#440=CARTESIAN_POINT('',(5.11902664470767,5.,-1.));
#441=CARTESIAN_POINT('Origin',(4.11902664470767,5.,-1.));
#442=CARTESIAN_POINT('',(5.11902664470767,2.5,-1.));
#443=CARTESIAN_POINT('Origin',(-7.0625,-4.16333634234434E-16,0.));
#444=CARTESIAN_POINT('',(-4.11902664470767,-5.,0.));
#445=CARTESIAN_POINT('',(-8.875,-5.,0.));
#446=CARTESIAN_POINT('',(-4.11902664470767,5.,0.));
#447=CARTESIAN_POINT('',(-4.11902664470767,2.5,0.));
#448=CARTESIAN_POINT('',(8.875,5.,0.));
#449=CARTESIAN_POINT('',(2.6,0.,0.));
#450=CARTESIAN_POINT('',(-2.6,-3.18408167778312E-16,0.));
#451=CARTESIAN_POINT('Origin',(0.,0.,0.));
#452=CARTESIAN_POINT('Origin',(0.,0.,0.));
#453=CARTESIAN_POINT('Origin',(-4.11902664470767,0.,-1.));
#454=CARTESIAN_POINT('',(-4.11902664470767,5.,1.));
#455=CARTESIAN_POINT('',(-6.11902664470767,5.,-1.));
#456=CARTESIAN_POINT('Origin',(-4.11902664470767,5.,-1.));
#457=CARTESIAN_POINT('',(-6.11902664470767,-5.,-0.999999999999999));
#458=CARTESIAN_POINT('',(-6.11902664470767,-2.5,-1.));
#459=CARTESIAN_POINT('',(-4.11902664470767,-5.,1.));
#460=CARTESIAN_POINT('Origin',(-4.11902664470767,-5.,-1.));
#461=CARTESIAN_POINT('',(-4.11902664470767,2.5,1.));
#462=CARTESIAN_POINT('Origin',(-4.11902664470767,0.,-1.));
#463=CARTESIAN_POINT('',(-5.11902664470767,5.,-1.));
#464=CARTESIAN_POINT('Origin',(-4.11902664470767,5.,-1.));
#465=CARTESIAN_POINT('',(-5.11902664470767,-5.,-0.999999999999999));
#466=CARTESIAN_POINT('Origin',(-4.11902664470767,-5.,-1.));
#467=CARTESIAN_POINT('',(-5.11902664470767,-2.5,-0.999999999999999));
#468=CARTESIAN_POINT('Origin',(-7.0625,-4.16333634234434E-16,1.));
#469=CARTESIAN_POINT('',(8.875,5.,1.));
#470=CARTESIAN_POINT('',(-8.875,-5.,1.));
#471=CARTESIAN_POINT('',(-2.6,3.18397651993818E-16,1.));
#472=CARTESIAN_POINT('Origin',(0.,0.,1.));
#473=CARTESIAN_POINT('Origin',(0.,0.,20.3976101541333));
#474=CARTESIAN_POINT('',(-2.6,-3.18408167778312E-16,20.3976101541333));
#475=CARTESIAN_POINT('Origin',(-6.11902664470767,2.56739074444567E-16,-1.68152664470767));
#476=CARTESIAN_POINT('',(-6.11902664470767,5.,-3.49402664470768));
#477=CARTESIAN_POINT('',(-6.11902664470767,5.,14.2559733552923));
#478=CARTESIAN_POINT('',(-6.11902664470767,-5.,-3.49402664470768));
#479=CARTESIAN_POINT('',(-6.11902664470767,5.,-3.49402664470768));
#480=CARTESIAN_POINT('',(-6.11902664470767,-5.,-3.49402664470768));
#481=CARTESIAN_POINT('Origin',(-5.11902664470767,-5.,-3.49402664470768));
#482=CARTESIAN_POINT('',(-5.11902664470767,5.,-3.49402664470768));
#483=CARTESIAN_POINT('',(-5.11902664470767,5.,-3.49402664470768));
#484=CARTESIAN_POINT('',(-5.11902664470767,-5.,-3.49402664470768));
#485=CARTESIAN_POINT('',(-5.11902664470767,5.,-3.49402664470768));
#486=CARTESIAN_POINT('',(-5.11902664470767,-5.,-3.49402664470768));
#487=CARTESIAN_POINT('Origin',(-5.11902664470767,3.67761376907083E-16,-1.68152664470767));
#488=CARTESIAN_POINT('',(-5.11902664470767,-5.,-3.49402664470768));
#489=CARTESIAN_POINT('',(-5.11902664470767,5.,14.2559733552923));
#490=CARTESIAN_POINT('Origin',(5.25,-5.,10.5));
#491=CARTESIAN_POINT('',(5.11902664470768,-5.,-3.49402664470767));
#492=CARTESIAN_POINT('',(5.11902664470767,-5.,14.2559733552923));
#493=CARTESIAN_POINT('',(6.11902664470768,-5.,-3.49402664470767));
#494=CARTESIAN_POINT('',(5.11902664470768,-5.,-3.49402664470767));
#495=CARTESIAN_POINT('',(6.11902664470767,-5.,14.2559733552923));
#496=CARTESIAN_POINT('Origin',(5.11902664470767,5.,-3.49402664470768));
#497=CARTESIAN_POINT('',(6.11902664470767,5.,-3.49402664470768));
#498=CARTESIAN_POINT('',(6.11902664470768,-5.,-3.49402664470767));
#499=CARTESIAN_POINT('',(5.11902664470767,5.,-3.49402664470768));
#500=CARTESIAN_POINT('',(5.11902664470768,-5.,-3.49402664470767));
#501=CARTESIAN_POINT('',(5.11902664470767,5.,-3.49402664470768));
#502=CARTESIAN_POINT('Origin',(6.11902664470767,2.48412401759879E-15,12.4434733552923));
#503=CARTESIAN_POINT('',(6.11902664470767,5.,-3.49402664470768));
#504=CARTESIAN_POINT('Origin',(1.625,5.,10.5));
#505=CARTESIAN_POINT('',(5.11902664470767,5.,-3.49402664470768));
#506=CARTESIAN_POINT('Origin',(5.11902664470767,2.26207941267376E-15,12.4434733552923));
#507=UNCERTAINTY_MEASURE_WITH_UNIT(LENGTH_MEASURE(0.01),#511,
'DISTANCE_ACCURACY_VALUE',
'Maximum model space distance between geometric entities at asserted c
onnectivities');
#508=UNCERTAINTY_MEASURE_WITH_UNIT(LENGTH_MEASURE(0.01),#511,
'DISTANCE_ACCURACY_VALUE',
'Maximum model space distance between geometric entities at asserted c
onnectivities');
#509=(
GEOMETRIC_REPRESENTATION_CONTEXT(3)
GLOBAL_UNCERTAINTY_ASSIGNED_CONTEXT((#507))
GLOBAL_UNIT_ASSIGNED_CONTEXT((#511,#513,#514))
REPRESENTATION_CONTEXT('','3D')
);
#510=(
GEOMETRIC_REPRESENTATION_CONTEXT(3)
GLOBAL_UNCERTAINTY_ASSIGNED_CONTEXT((#508))
GLOBAL_UNIT_ASSIGNED_CONTEXT((#511,#513,#514))
REPRESENTATION_CONTEXT('','3D')
);
#511=(
LENGTH_UNIT()
NAMED_UNIT(*)
SI_UNIT(.MILLI.,.METRE.)
);
#512=(
LENGTH_UNIT()
NAMED_UNIT(*)
SI_UNIT(.CENTI.,.METRE.)
);
#513=(
NAMED_UNIT(*)
PLANE_ANGLE_UNIT()
SI_UNIT($,.RADIAN.)
);
#514=(
NAMED_UNIT(*)
SI_UNIT($,.STERADIAN.)
SOLID_ANGLE_UNIT()
);
#515=SHAPE_DEFINITION_REPRESENTATION(#516,#517);
#516=PRODUCT_DEFINITION_SHAPE('',$,#519);
#517=SHAPE_REPRESENTATION('',(#314),#509);
#518=PRODUCT_DEFINITION_CONTEXT('part definition',#523,'design');
#519=PRODUCT_DEFINITION('RW11','RW11',#520,#518);
#520=PRODUCT_DEFINITION_FORMATION('',$,#525);
#521=PRODUCT_RELATED_PRODUCT_CATEGORY('RW11','RW11',(#525));
#522=APPLICATION_PROTOCOL_DEFINITION('international standard',
'automotive_design',2009,#523);
#523=APPLICATION_CONTEXT(
'Core Data for Automotive Mechanical Design Process');
#524=PRODUCT_CONTEXT('part definition',#523,'mechanical');
#525=PRODUCT('RW11','RW11','SLIDER',(#524));
#526=PRESENTATION_STYLE_ASSIGNMENT((#527));
#527=SURFACE_STYLE_USAGE(.BOTH.,#530);
#528=SURFACE_STYLE_RENDERING_WITH_PROPERTIES($,#534,(#529));
#529=SURFACE_STYLE_TRANSPARENT(0.);
#530=SURFACE_SIDE_STYLE('',(#531,#528));
#531=SURFACE_STYLE_FILL_AREA(#532);
#532=FILL_AREA_STYLE('',(#533));
#533=FILL_AREA_STYLE_COLOUR('',#534);
#534=COLOUR_RGB('',0.745098039215686,0.737254901960784,0.729411764705882);
ENDSEC;
END-ISO-10303-21;
