ISO-10303-21;
HEADER;
/* Generated by software containing ST-Developer
 * from STEP Tools, Inc. (www.steptools.com) 
 */

FILE_DESCRIPTION(
/* description */ (''),
/* implementation_level */ '2;1');

FILE_NAME(
/* name */ 'C:\\TEMP\\VBF 250 R1.stp.stp',
/* time_stamp */ '2022-01-19T11:35:07+00:00',
/* author */ ('Sandfield Engineering'),
/* organization */ ('Sandfield Engineering'),
/* preprocessor_version */ 'ST-DEVELOPER v18.1',
/* originating_system */ 'Autodesk Inventor 2021',
/* authorisation */ '');

FILE_SCHEMA (('AUTOMOTIVE_DESIGN { 1 0 10303 214 3 1 1 }'));
ENDSEC;

DATA;
#10=MECHANICAL_DESIGN_GEOMETRIC_PRESENTATION_REPRESENTATION('',(#41,#42,
#43),#490);
#11=SHAPE_REPRESENTATION_RELATIONSHIP('SRR','None',#497,#12);
#12=ADVANCED_BREP_SHAPE_REPRESENTATION('',(#13),#489);
#13=MANIFOLD_SOLID_BREP('Solid1',#266);
#14=LINE('',#424,#23);
#15=LINE('',#431,#24);
#16=LINE('',#439,#25);
#17=LINE('',#445,#26);
#18=LINE('',#451,#27);
#19=LINE('',#457,#28);
#20=LINE('',#465,#29);
#21=LINE('',#478,#30);
#22=LINE('',#486,#31);
#23=VECTOR('',#337,140.);
#24=VECTOR('',#346,3.175);
#25=VECTOR('',#355,7.493);
#26=VECTOR('',#362,7.493);
#27=VECTOR('',#369,7.493);
#28=VECTOR('',#376,7.493);
#29=VECTOR('',#385,145.);
#30=VECTOR('',#402,141.5);
#31=VECTOR('',#413,170.);
#32=CYLINDRICAL_SURFACE('',#290,140.);
#33=CYLINDRICAL_SURFACE('',#294,3.175);
#34=CYLINDRICAL_SURFACE('',#297,7.493);
#35=CYLINDRICAL_SURFACE('',#300,7.493);
#36=CYLINDRICAL_SURFACE('',#303,7.493);
#37=CYLINDRICAL_SURFACE('',#306,7.493);
#38=CYLINDRICAL_SURFACE('',#309,145.);
#39=CYLINDRICAL_SURFACE('',#318,141.5);
#40=CYLINDRICAL_SURFACE('',#324,170.);
#41=STYLED_ITEM('',(#508),#252);
#42=STYLED_ITEM('',(#509),#262);
#43=STYLED_ITEM('',(#507),#13);
#44=FACE_BOUND('',#72,.T.);
#45=FACE_BOUND('',#82,.T.);
#46=FACE_BOUND('',#84,.T.);
#47=FACE_BOUND('',#87,.T.);
#48=FACE_BOUND('',#88,.T.);
#49=FACE_BOUND('',#89,.T.);
#50=FACE_BOUND('',#90,.T.);
#51=FACE_BOUND('',#92,.T.);
#52=FACE_BOUND('',#93,.T.);
#53=FACE_BOUND('',#94,.T.);
#54=FACE_BOUND('',#95,.T.);
#55=FACE_BOUND('',#96,.T.);
#56=FACE_OUTER_BOUND('',#71,.T.);
#57=FACE_OUTER_BOUND('',#73,.T.);
#58=FACE_OUTER_BOUND('',#74,.T.);
#59=FACE_OUTER_BOUND('',#75,.T.);
#60=FACE_OUTER_BOUND('',#76,.T.);
#61=FACE_OUTER_BOUND('',#77,.T.);
#62=FACE_OUTER_BOUND('',#78,.T.);
#63=FACE_OUTER_BOUND('',#79,.T.);
#64=FACE_OUTER_BOUND('',#80,.T.);
#65=FACE_OUTER_BOUND('',#81,.T.);
#66=FACE_OUTER_BOUND('',#83,.T.);
#67=FACE_OUTER_BOUND('',#85,.T.);
#68=FACE_OUTER_BOUND('',#86,.T.);
#69=FACE_OUTER_BOUND('',#91,.T.);
#70=FACE_OUTER_BOUND('',#97,.T.);
#71=EDGE_LOOP('',(#179,#180));
#72=EDGE_LOOP('',(#181));
#73=EDGE_LOOP('',(#182,#183,#184,#185,#186,#187));
#74=EDGE_LOOP('',(#188,#189));
#75=EDGE_LOOP('',(#190,#191,#192,#193,#194));
#76=EDGE_LOOP('',(#195,#196,#197,#198));
#77=EDGE_LOOP('',(#199,#200,#201,#202));
#78=EDGE_LOOP('',(#203,#204,#205,#206));
#79=EDGE_LOOP('',(#207,#208,#209,#210));
#80=EDGE_LOOP('',(#211,#212,#213,#214,#215,#216));
#81=EDGE_LOOP('',(#217,#218));
#82=EDGE_LOOP('',(#219,#220));
#83=EDGE_LOOP('',(#221,#222));
#84=EDGE_LOOP('',(#223,#224));
#85=EDGE_LOOP('',(#225,#226,#227,#228,#229));
#86=EDGE_LOOP('',(#230));
#87=EDGE_LOOP('',(#231));
#88=EDGE_LOOP('',(#232));
#89=EDGE_LOOP('',(#233));
#90=EDGE_LOOP('',(#234));
#91=EDGE_LOOP('',(#235));
#92=EDGE_LOOP('',(#236));
#93=EDGE_LOOP('',(#237));
#94=EDGE_LOOP('',(#238));
#95=EDGE_LOOP('',(#239));
#96=EDGE_LOOP('',(#240));
#97=EDGE_LOOP('',(#241,#242,#243,#244));
#98=CIRCLE('',#287,140.);
#99=CIRCLE('',#288,140.);
#100=CIRCLE('',#289,3.175);
#101=CIRCLE('',#291,140.);
#102=CIRCLE('',#292,140.);
#103=CIRCLE('',#295,3.175);
#104=CIRCLE('',#296,3.175);
#105=CIRCLE('',#298,7.493);
#106=CIRCLE('',#299,7.493);
#107=CIRCLE('',#301,7.493);
#108=CIRCLE('',#302,7.493);
#109=CIRCLE('',#304,7.493);
#110=CIRCLE('',#305,7.493);
#111=CIRCLE('',#307,7.493);
#112=CIRCLE('',#308,7.493);
#113=CIRCLE('',#310,145.);
#114=CIRCLE('',#311,145.);
#115=CIRCLE('',#312,145.);
#116=CIRCLE('',#313,145.);
#117=CIRCLE('',#316,141.5);
#118=CIRCLE('',#317,141.5);
#119=CIRCLE('',#319,141.5);
#120=CIRCLE('',#321,170.);
#121=CIRCLE('',#323,170.);
#122=VERTEX_POINT('',#416);
#123=VERTEX_POINT('',#417);
#124=VERTEX_POINT('',#420);
#125=VERTEX_POINT('',#423);
#126=VERTEX_POINT('',#425);
#127=VERTEX_POINT('',#430);
#128=VERTEX_POINT('',#432);
#129=VERTEX_POINT('',#436);
#130=VERTEX_POINT('',#438);
#131=VERTEX_POINT('',#442);
#132=VERTEX_POINT('',#444);
#133=VERTEX_POINT('',#448);
#134=VERTEX_POINT('',#450);
#135=VERTEX_POINT('',#454);
#136=VERTEX_POINT('',#456);
#137=VERTEX_POINT('',#460);
#138=VERTEX_POINT('',#461);
#139=VERTEX_POINT('',#464);
#140=VERTEX_POINT('',#466);
#141=VERTEX_POINT('',#471);
#142=VERTEX_POINT('',#472);
#143=VERTEX_POINT('',#476);
#144=VERTEX_POINT('',#480);
#145=VERTEX_POINT('',#483);
#146=EDGE_CURVE('',#122,#123,#98,.T.);
#147=EDGE_CURVE('',#123,#122,#99,.T.);
#148=EDGE_CURVE('',#124,#124,#100,.T.);
#149=EDGE_CURVE('',#123,#125,#14,.T.);
#150=EDGE_CURVE('',#125,#126,#101,.T.);
#151=EDGE_CURVE('',#126,#125,#102,.T.);
#152=EDGE_CURVE('',#124,#127,#15,.T.);
#153=EDGE_CURVE('',#127,#128,#103,.T.);
#154=EDGE_CURVE('',#128,#127,#104,.T.);
#155=EDGE_CURVE('',#129,#129,#105,.T.);
#156=EDGE_CURVE('',#129,#130,#16,.T.);
#157=EDGE_CURVE('',#130,#130,#106,.T.);
#158=EDGE_CURVE('',#131,#131,#107,.T.);
#159=EDGE_CURVE('',#131,#132,#17,.T.);
#160=EDGE_CURVE('',#132,#132,#108,.T.);
#161=EDGE_CURVE('',#133,#133,#109,.T.);
#162=EDGE_CURVE('',#133,#134,#18,.T.);
#163=EDGE_CURVE('',#134,#134,#110,.T.);
#164=EDGE_CURVE('',#135,#135,#111,.T.);
#165=EDGE_CURVE('',#135,#136,#19,.T.);
#166=EDGE_CURVE('',#136,#136,#112,.T.);
#167=EDGE_CURVE('',#137,#138,#113,.T.);
#168=EDGE_CURVE('',#138,#137,#114,.T.);
#169=EDGE_CURVE('',#138,#139,#20,.T.);
#170=EDGE_CURVE('',#139,#140,#115,.T.);
#171=EDGE_CURVE('',#140,#139,#116,.T.);
#172=EDGE_CURVE('',#141,#142,#117,.T.);
#173=EDGE_CURVE('',#142,#141,#118,.T.);
#174=EDGE_CURVE('',#143,#143,#119,.T.);
#175=EDGE_CURVE('',#143,#142,#21,.T.);
#176=EDGE_CURVE('',#144,#144,#120,.T.);
#177=EDGE_CURVE('',#145,#145,#121,.T.);
#178=EDGE_CURVE('',#144,#145,#22,.T.);
#179=ORIENTED_EDGE('',*,*,#146,.F.);
#180=ORIENTED_EDGE('',*,*,#147,.F.);
#181=ORIENTED_EDGE('',*,*,#148,.F.);
#182=ORIENTED_EDGE('',*,*,#146,.T.);
#183=ORIENTED_EDGE('',*,*,#149,.T.);
#184=ORIENTED_EDGE('',*,*,#150,.T.);
#185=ORIENTED_EDGE('',*,*,#151,.T.);
#186=ORIENTED_EDGE('',*,*,#149,.F.);
#187=ORIENTED_EDGE('',*,*,#147,.T.);
#188=ORIENTED_EDGE('',*,*,#151,.F.);
#189=ORIENTED_EDGE('',*,*,#150,.F.);
#190=ORIENTED_EDGE('',*,*,#148,.T.);
#191=ORIENTED_EDGE('',*,*,#152,.T.);
#192=ORIENTED_EDGE('',*,*,#153,.T.);
#193=ORIENTED_EDGE('',*,*,#154,.T.);
#194=ORIENTED_EDGE('',*,*,#152,.F.);
#195=ORIENTED_EDGE('',*,*,#155,.T.);
#196=ORIENTED_EDGE('',*,*,#156,.T.);
#197=ORIENTED_EDGE('',*,*,#157,.T.);
#198=ORIENTED_EDGE('',*,*,#156,.F.);
#199=ORIENTED_EDGE('',*,*,#158,.T.);
#200=ORIENTED_EDGE('',*,*,#159,.T.);
#201=ORIENTED_EDGE('',*,*,#160,.T.);
#202=ORIENTED_EDGE('',*,*,#159,.F.);
#203=ORIENTED_EDGE('',*,*,#161,.T.);
#204=ORIENTED_EDGE('',*,*,#162,.T.);
#205=ORIENTED_EDGE('',*,*,#163,.T.);
#206=ORIENTED_EDGE('',*,*,#162,.F.);
#207=ORIENTED_EDGE('',*,*,#164,.T.);
#208=ORIENTED_EDGE('',*,*,#165,.T.);
#209=ORIENTED_EDGE('',*,*,#166,.T.);
#210=ORIENTED_EDGE('',*,*,#165,.F.);
#211=ORIENTED_EDGE('',*,*,#167,.F.);
#212=ORIENTED_EDGE('',*,*,#168,.F.);
#213=ORIENTED_EDGE('',*,*,#169,.T.);
#214=ORIENTED_EDGE('',*,*,#170,.T.);
#215=ORIENTED_EDGE('',*,*,#171,.T.);
#216=ORIENTED_EDGE('',*,*,#169,.F.);
#217=ORIENTED_EDGE('',*,*,#171,.F.);
#218=ORIENTED_EDGE('',*,*,#170,.F.);
#219=ORIENTED_EDGE('',*,*,#154,.F.);
#220=ORIENTED_EDGE('',*,*,#153,.F.);
#221=ORIENTED_EDGE('',*,*,#167,.T.);
#222=ORIENTED_EDGE('',*,*,#168,.T.);
#223=ORIENTED_EDGE('',*,*,#172,.T.);
#224=ORIENTED_EDGE('',*,*,#173,.T.);
#225=ORIENTED_EDGE('',*,*,#174,.F.);
#226=ORIENTED_EDGE('',*,*,#175,.T.);
#227=ORIENTED_EDGE('',*,*,#172,.F.);
#228=ORIENTED_EDGE('',*,*,#173,.F.);
#229=ORIENTED_EDGE('',*,*,#175,.F.);
#230=ORIENTED_EDGE('',*,*,#176,.T.);
#231=ORIENTED_EDGE('',*,*,#164,.F.);
#232=ORIENTED_EDGE('',*,*,#161,.F.);
#233=ORIENTED_EDGE('',*,*,#158,.F.);
#234=ORIENTED_EDGE('',*,*,#155,.F.);
#235=ORIENTED_EDGE('',*,*,#177,.F.);
#236=ORIENTED_EDGE('',*,*,#174,.T.);
#237=ORIENTED_EDGE('',*,*,#166,.F.);
#238=ORIENTED_EDGE('',*,*,#163,.F.);
#239=ORIENTED_EDGE('',*,*,#160,.F.);
#240=ORIENTED_EDGE('',*,*,#157,.F.);
#241=ORIENTED_EDGE('',*,*,#176,.F.);
#242=ORIENTED_EDGE('',*,*,#178,.T.);
#243=ORIENTED_EDGE('',*,*,#177,.T.);
#244=ORIENTED_EDGE('',*,*,#178,.F.);
#245=PLANE('',#286);
#246=PLANE('',#293);
#247=PLANE('',#314);
#248=PLANE('',#315);
#249=PLANE('',#320);
#250=PLANE('',#322);
#251=ADVANCED_FACE('',(#56,#44),#245,.T.);
#252=ADVANCED_FACE('',(#57),#32,.F.);
#253=ADVANCED_FACE('',(#58),#246,.F.);
#254=ADVANCED_FACE('',(#59),#33,.F.);
#255=ADVANCED_FACE('',(#60),#34,.F.);
#256=ADVANCED_FACE('',(#61),#35,.F.);
#257=ADVANCED_FACE('',(#62),#36,.F.);
#258=ADVANCED_FACE('',(#63),#37,.F.);
#259=ADVANCED_FACE('',(#64),#38,.T.);
#260=ADVANCED_FACE('',(#65,#45),#247,.F.);
#261=ADVANCED_FACE('',(#66,#46),#248,.T.);
#262=ADVANCED_FACE('',(#67),#39,.T.);
#263=ADVANCED_FACE('',(#68,#47,#48,#49,#50),#249,.T.);
#264=ADVANCED_FACE('',(#69,#51,#52,#53,#54,#55),#250,.F.);
#265=ADVANCED_FACE('',(#70),#40,.T.);
#266=CLOSED_SHELL('',(#251,#252,#253,#254,#255,#256,#257,#258,#259,#260,
#261,#262,#263,#264,#265));
#267=DERIVED_UNIT_ELEMENT(#269,1.);
#268=DERIVED_UNIT_ELEMENT(#492,3.);
#269=(
MASS_UNIT()
NAMED_UNIT(*)
SI_UNIT($,.GRAM.)
);
#270=DERIVED_UNIT((#267,#268));
#271=MEASURE_REPRESENTATION_ITEM('density measure',
POSITIVE_RATIO_MEASURE(1.),#270);
#272=PROPERTY_DEFINITION_REPRESENTATION(#277,#274);
#273=PROPERTY_DEFINITION_REPRESENTATION(#278,#275);
#274=REPRESENTATION('material name',(#276),#489);
#275=REPRESENTATION('density',(#271),#489);
#276=DESCRIPTIVE_REPRESENTATION_ITEM('Generic','Generic');
#277=PROPERTY_DEFINITION('material property','material name',#499);
#278=PROPERTY_DEFINITION('material property','density of part',#499);
#279=DATE_TIME_ROLE('creation_date');
#280=APPLIED_DATE_AND_TIME_ASSIGNMENT(#281,#279,(#499));
#281=DATE_AND_TIME(#282,#283);
#282=CALENDAR_DATE(2020,29,6);
#283=LOCAL_TIME(11,17,42.,#284);
#284=COORDINATED_UNIVERSAL_TIME_OFFSET(0,0,.BEHIND.);
#285=AXIS2_PLACEMENT_3D('placement',#414,#325,#326);
#286=AXIS2_PLACEMENT_3D('',#415,#327,#328);
#287=AXIS2_PLACEMENT_3D('',#418,#329,#330);
#288=AXIS2_PLACEMENT_3D('',#419,#331,#332);
#289=AXIS2_PLACEMENT_3D('',#421,#333,#334);
#290=AXIS2_PLACEMENT_3D('',#422,#335,#336);
#291=AXIS2_PLACEMENT_3D('',#426,#338,#339);
#292=AXIS2_PLACEMENT_3D('',#427,#340,#341);
#293=AXIS2_PLACEMENT_3D('',#428,#342,#343);
#294=AXIS2_PLACEMENT_3D('',#429,#344,#345);
#295=AXIS2_PLACEMENT_3D('',#433,#347,#348);
#296=AXIS2_PLACEMENT_3D('',#434,#349,#350);
#297=AXIS2_PLACEMENT_3D('',#435,#351,#352);
#298=AXIS2_PLACEMENT_3D('',#437,#353,#354);
#299=AXIS2_PLACEMENT_3D('',#440,#356,#357);
#300=AXIS2_PLACEMENT_3D('',#441,#358,#359);
#301=AXIS2_PLACEMENT_3D('',#443,#360,#361);
#302=AXIS2_PLACEMENT_3D('',#446,#363,#364);
#303=AXIS2_PLACEMENT_3D('',#447,#365,#366);
#304=AXIS2_PLACEMENT_3D('',#449,#367,#368);
#305=AXIS2_PLACEMENT_3D('',#452,#370,#371);
#306=AXIS2_PLACEMENT_3D('',#453,#372,#373);
#307=AXIS2_PLACEMENT_3D('',#455,#374,#375);
#308=AXIS2_PLACEMENT_3D('',#458,#377,#378);
#309=AXIS2_PLACEMENT_3D('',#459,#379,#380);
#310=AXIS2_PLACEMENT_3D('',#462,#381,#382);
#311=AXIS2_PLACEMENT_3D('',#463,#383,#384);
#312=AXIS2_PLACEMENT_3D('',#467,#386,#387);
#313=AXIS2_PLACEMENT_3D('',#468,#388,#389);
#314=AXIS2_PLACEMENT_3D('',#469,#390,#391);
#315=AXIS2_PLACEMENT_3D('',#470,#392,#393);
#316=AXIS2_PLACEMENT_3D('',#473,#394,#395);
#317=AXIS2_PLACEMENT_3D('',#474,#396,#397);
#318=AXIS2_PLACEMENT_3D('',#475,#398,#399);
#319=AXIS2_PLACEMENT_3D('',#477,#400,#401);
#320=AXIS2_PLACEMENT_3D('',#479,#403,#404);
#321=AXIS2_PLACEMENT_3D('',#481,#405,#406);
#322=AXIS2_PLACEMENT_3D('',#482,#407,#408);
#323=AXIS2_PLACEMENT_3D('',#484,#409,#410);
#324=AXIS2_PLACEMENT_3D('',#485,#411,#412);
#325=DIRECTION('axis',(0.,0.,1.));
#326=DIRECTION('refdir',(1.,0.,0.));
#327=DIRECTION('center_axis',(0.,0.,-1.));
#328=DIRECTION('ref_axis',(-1.,0.,0.));
#329=DIRECTION('center_axis',(0.,0.,1.));
#330=DIRECTION('ref_axis',(-1.,0.,0.));
#331=DIRECTION('center_axis',(0.,0.,1.));
#332=DIRECTION('ref_axis',(-1.,0.,0.));
#333=DIRECTION('center_axis',(0.,0.,-1.));
#334=DIRECTION('ref_axis',(-1.,0.,0.));
#335=DIRECTION('center_axis',(0.,0.,-1.));
#336=DIRECTION('ref_axis',(-1.,0.,0.));
#337=DIRECTION('',(0.,0.,-1.));
#338=DIRECTION('center_axis',(0.,0.,-1.));
#339=DIRECTION('ref_axis',(0.,1.,0.));
#340=DIRECTION('center_axis',(0.,0.,-1.));
#341=DIRECTION('ref_axis',(0.,1.,0.));
#342=DIRECTION('center_axis',(0.,0.,-1.));
#343=DIRECTION('ref_axis',(-1.,0.,0.));
#344=DIRECTION('center_axis',(0.,0.,1.));
#345=DIRECTION('ref_axis',(1.,0.,0.));
#346=DIRECTION('',(0.,0.,1.));
#347=DIRECTION('center_axis',(0.,0.,1.));
#348=DIRECTION('ref_axis',(0.,1.,0.));
#349=DIRECTION('center_axis',(0.,0.,1.));
#350=DIRECTION('ref_axis',(0.,1.,0.));
#351=DIRECTION('center_axis',(0.,0.,1.));
#352=DIRECTION('ref_axis',(1.,0.,0.));
#353=DIRECTION('center_axis',(0.,0.,-1.));
#354=DIRECTION('ref_axis',(-1.,0.,0.));
#355=DIRECTION('',(0.,0.,1.));
#356=DIRECTION('center_axis',(0.,0.,1.));
#357=DIRECTION('ref_axis',(-1.,0.,0.));
#358=DIRECTION('center_axis',(0.,0.,1.));
#359=DIRECTION('ref_axis',(1.,0.,0.));
#360=DIRECTION('center_axis',(0.,0.,-1.));
#361=DIRECTION('ref_axis',(-1.,0.,0.));
#362=DIRECTION('',(0.,0.,1.));
#363=DIRECTION('center_axis',(0.,0.,1.));
#364=DIRECTION('ref_axis',(-1.,0.,0.));
#365=DIRECTION('center_axis',(0.,0.,1.));
#366=DIRECTION('ref_axis',(1.,0.,0.));
#367=DIRECTION('center_axis',(0.,0.,-1.));
#368=DIRECTION('ref_axis',(-1.,0.,0.));
#369=DIRECTION('',(0.,0.,1.));
#370=DIRECTION('center_axis',(0.,0.,1.));
#371=DIRECTION('ref_axis',(-1.,0.,0.));
#372=DIRECTION('center_axis',(0.,0.,1.));
#373=DIRECTION('ref_axis',(1.,0.,0.));
#374=DIRECTION('center_axis',(0.,0.,-1.));
#375=DIRECTION('ref_axis',(-1.,0.,0.));
#376=DIRECTION('',(0.,0.,1.));
#377=DIRECTION('center_axis',(0.,0.,1.));
#378=DIRECTION('ref_axis',(-1.,0.,0.));
#379=DIRECTION('center_axis',(0.,0.,-1.));
#380=DIRECTION('ref_axis',(-1.,0.,0.));
#381=DIRECTION('center_axis',(0.,0.,-1.));
#382=DIRECTION('ref_axis',(0.,1.,0.));
#383=DIRECTION('center_axis',(0.,0.,-1.));
#384=DIRECTION('ref_axis',(0.,1.,0.));
#385=DIRECTION('',(0.,0.,1.));
#386=DIRECTION('center_axis',(0.,0.,-1.));
#387=DIRECTION('ref_axis',(0.,1.,0.));
#388=DIRECTION('center_axis',(0.,0.,-1.));
#389=DIRECTION('ref_axis',(0.,1.,0.));
#390=DIRECTION('center_axis',(0.,0.,-1.));
#391=DIRECTION('ref_axis',(-1.,0.,0.));
#392=DIRECTION('center_axis',(0.,0.,-1.));
#393=DIRECTION('ref_axis',(-1.,0.,0.));
#394=DIRECTION('center_axis',(0.,0.,1.));
#395=DIRECTION('ref_axis',(-1.,0.,0.));
#396=DIRECTION('center_axis',(0.,0.,1.));
#397=DIRECTION('ref_axis',(-1.,0.,0.));
#398=DIRECTION('center_axis',(0.,0.,-1.));
#399=DIRECTION('ref_axis',(-1.,0.,0.));
#400=DIRECTION('center_axis',(0.,0.,-1.));
#401=DIRECTION('ref_axis',(1.,0.,0.));
#402=DIRECTION('',(0.,0.,1.));
#403=DIRECTION('center_axis',(0.,0.,-1.));
#404=DIRECTION('ref_axis',(-1.,0.,0.));
#405=DIRECTION('center_axis',(0.,0.,-1.));
#406=DIRECTION('ref_axis',(1.,0.,0.));
#407=DIRECTION('center_axis',(0.,0.,-1.));
#408=DIRECTION('ref_axis',(-1.,0.,0.));
#409=DIRECTION('center_axis',(0.,0.,-1.));
#410=DIRECTION('ref_axis',(1.,0.,0.));
#411=DIRECTION('center_axis',(0.,0.,-1.));
#412=DIRECTION('ref_axis',(-1.,0.,0.));
#413=DIRECTION('',(0.,0.,1.));
#414=CARTESIAN_POINT('',(0.,0.,0.));
#415=CARTESIAN_POINT('Origin',(0.,0.,213.));
#416=CARTESIAN_POINT('',(-140.,0.,213.));
#417=CARTESIAN_POINT('',(140.,-1.71450551880629E-14,213.));
#418=CARTESIAN_POINT('Origin',(0.,0.,213.));
#419=CARTESIAN_POINT('Origin',(0.,0.,213.));
#420=CARTESIAN_POINT('',(-3.175,0.,213.));
#421=CARTESIAN_POINT('Origin',(0.,0.,213.));
#422=CARTESIAN_POINT('Origin',(0.,0.,214.));
#423=CARTESIAN_POINT('',(140.,-1.71450551880629E-14,29.));
#424=CARTESIAN_POINT('',(140.,-1.71450551880629E-14,214.));
#425=CARTESIAN_POINT('',(0.,140.,29.));
#426=CARTESIAN_POINT('Origin',(0.,0.,29.));
#427=CARTESIAN_POINT('Origin',(0.,0.,29.));
#428=CARTESIAN_POINT('Origin',(0.,0.,29.));
#429=CARTESIAN_POINT('Origin',(0.,0.,-309.189002153295));
#430=CARTESIAN_POINT('',(-3.175,-3.88825358729285E-16,220.));
#431=CARTESIAN_POINT('',(-3.175,-3.88825358729285E-16,-309.189002153295));
#432=CARTESIAN_POINT('',(0.,3.175,220.));
#433=CARTESIAN_POINT('Origin',(0.,0.,220.));
#434=CARTESIAN_POINT('Origin',(0.,0.,220.));
#435=CARTESIAN_POINT('Origin',(0.,-155.,-513.189002153295));
#436=CARTESIAN_POINT('',(-7.493,-155.,-1.));
#437=CARTESIAN_POINT('Origin',(0.,-155.,-1.));
#438=CARTESIAN_POINT('',(-7.493,-155.,16.));
#439=CARTESIAN_POINT('',(-7.493,-155.,-513.189002153295));
#440=CARTESIAN_POINT('Origin',(0.,-155.,16.));
#441=CARTESIAN_POINT('Origin',(-155.,0.,-513.189002153295));
#442=CARTESIAN_POINT('',(-162.493,0.,-1.));
#443=CARTESIAN_POINT('Origin',(-155.,0.,-1.));
#444=CARTESIAN_POINT('',(-162.493,0.,16.));
#445=CARTESIAN_POINT('',(-162.493,-9.17627846601112E-16,-513.189002153295));
#446=CARTESIAN_POINT('Origin',(-155.,0.,16.));
#447=CARTESIAN_POINT('Origin',(0.,155.,-513.189002153295));
#448=CARTESIAN_POINT('',(-7.493,155.,-1.));
#449=CARTESIAN_POINT('Origin',(0.,155.,-1.));
#450=CARTESIAN_POINT('',(-7.493,155.,16.));
#451=CARTESIAN_POINT('',(-7.493,155.,-513.189002153295));
#452=CARTESIAN_POINT('Origin',(0.,155.,16.));
#453=CARTESIAN_POINT('Origin',(155.,0.,-513.189002153295));
#454=CARTESIAN_POINT('',(147.507,0.,-1.));
#455=CARTESIAN_POINT('Origin',(155.,0.,-1.));
#456=CARTESIAN_POINT('',(147.507,0.,16.));
#457=CARTESIAN_POINT('',(147.507,-9.17627846601112E-16,-513.189002153295));
#458=CARTESIAN_POINT('Origin',(155.,0.,16.));
#459=CARTESIAN_POINT('Origin',(0.,0.,220.));
#460=CARTESIAN_POINT('',(0.,145.,213.));
#461=CARTESIAN_POINT('',(145.,-1.77573785876366E-14,213.));
#462=CARTESIAN_POINT('Origin',(0.,0.,213.));
#463=CARTESIAN_POINT('Origin',(0.,0.,213.));
#464=CARTESIAN_POINT('',(145.,-1.77573785876366E-14,220.));
#465=CARTESIAN_POINT('',(145.,-1.77573785876366E-14,220.));
#466=CARTESIAN_POINT('',(0.,145.,220.));
#467=CARTESIAN_POINT('Origin',(0.,0.,220.));
#468=CARTESIAN_POINT('Origin',(0.,0.,220.));
#469=CARTESIAN_POINT('Origin',(0.,0.,220.));
#470=CARTESIAN_POINT('Origin',(0.,0.,213.));
#471=CARTESIAN_POINT('',(-141.5,0.,213.));
#472=CARTESIAN_POINT('',(141.5,-1.7328752207935E-14,213.));
#473=CARTESIAN_POINT('Origin',(0.,0.,213.));
#474=CARTESIAN_POINT('Origin',(0.,0.,213.));
#475=CARTESIAN_POINT('Origin',(0.,0.,214.));
#476=CARTESIAN_POINT('',(141.5,0.,16.));
#477=CARTESIAN_POINT('Origin',(0.,0.,16.));
#478=CARTESIAN_POINT('',(141.5,-1.7328752207935E-14,214.));
#479=CARTESIAN_POINT('Origin',(0.,0.,-1.));
#480=CARTESIAN_POINT('',(170.,0.,-1.));
#481=CARTESIAN_POINT('Origin',(0.,0.,-1.));
#482=CARTESIAN_POINT('Origin',(0.,0.,16.));
#483=CARTESIAN_POINT('',(170.,0.,16.));
#484=CARTESIAN_POINT('Origin',(0.,0.,16.));
#485=CARTESIAN_POINT('Origin',(0.,0.,16.));
#486=CARTESIAN_POINT('',(170.,-2.0818995585505E-14,16.));
#487=UNCERTAINTY_MEASURE_WITH_UNIT(LENGTH_MEASURE(0.01),#491,
'DISTANCE_ACCURACY_VALUE',
'Maximum model space distance between geometric entities at asserted c
onnectivities');
#488=UNCERTAINTY_MEASURE_WITH_UNIT(LENGTH_MEASURE(0.01),#491,
'DISTANCE_ACCURACY_VALUE',
'Maximum model space distance between geometric entities at asserted c
onnectivities');
#489=(
GEOMETRIC_REPRESENTATION_CONTEXT(3)
GLOBAL_UNCERTAINTY_ASSIGNED_CONTEXT((#487))
GLOBAL_UNIT_ASSIGNED_CONTEXT((#491,#493,#494))
REPRESENTATION_CONTEXT('','3D')
);
#490=(
GEOMETRIC_REPRESENTATION_CONTEXT(3)
GLOBAL_UNCERTAINTY_ASSIGNED_CONTEXT((#488))
GLOBAL_UNIT_ASSIGNED_CONTEXT((#491,#493,#494))
REPRESENTATION_CONTEXT('','3D')
);
#491=(
LENGTH_UNIT()
NAMED_UNIT(*)
SI_UNIT(.MILLI.,.METRE.)
);
#492=(
LENGTH_UNIT()
NAMED_UNIT(*)
SI_UNIT(.CENTI.,.METRE.)
);
#493=(
NAMED_UNIT(*)
PLANE_ANGLE_UNIT()
SI_UNIT($,.RADIAN.)
);
#494=(
NAMED_UNIT(*)
SI_UNIT($,.STERADIAN.)
SOLID_ANGLE_UNIT()
);
#495=SHAPE_DEFINITION_REPRESENTATION(#496,#497);
#496=PRODUCT_DEFINITION_SHAPE('',$,#499);
#497=SHAPE_REPRESENTATION('',(#285),#489);
#498=PRODUCT_DEFINITION_CONTEXT('part definition',#503,'design');
#499=PRODUCT_DEFINITION('VBF 250 R1.stp','VBF 250 R1.stp',#500,#498);
#500=PRODUCT_DEFINITION_FORMATION('',$,#505);
#501=PRODUCT_RELATED_PRODUCT_CATEGORY('VBF 250 R1.stp','VBF 250 R1.stp',
(#505));
#502=APPLICATION_PROTOCOL_DEFINITION('international standard',
'automotive_design',2009,#503);
#503=APPLICATION_CONTEXT(
'Core Data for Automotive Mechanical Design Process');
#504=PRODUCT_CONTEXT('part definition',#503,'mechanical');
#505=PRODUCT('VBF 250 R1.stp','VBF 250 R1.stp',$,(#504));
#506=PRESENTATION_STYLE_ASSIGNMENT((#510));
#507=PRESENTATION_STYLE_ASSIGNMENT((#511));
#508=PRESENTATION_STYLE_ASSIGNMENT((#512));
#509=PRESENTATION_STYLE_ASSIGNMENT((#513));
#510=SURFACE_STYLE_USAGE(.BOTH.,#522);
#511=SURFACE_STYLE_USAGE(.BOTH.,#523);
#512=SURFACE_STYLE_USAGE(.BOTH.,#524);
#513=SURFACE_STYLE_USAGE(.BOTH.,#525);
#514=SURFACE_STYLE_RENDERING_WITH_PROPERTIES($,#538,(#518));
#515=SURFACE_STYLE_RENDERING_WITH_PROPERTIES($,#539,(#519));
#516=SURFACE_STYLE_RENDERING_WITH_PROPERTIES($,#540,(#520));
#517=SURFACE_STYLE_RENDERING_WITH_PROPERTIES($,#541,(#521));
#518=SURFACE_STYLE_TRANSPARENT(0.);
#519=SURFACE_STYLE_TRANSPARENT(0.);
#520=SURFACE_STYLE_TRANSPARENT(0.);
#521=SURFACE_STYLE_TRANSPARENT(0.);
#522=SURFACE_SIDE_STYLE('',(#526,#514));
#523=SURFACE_SIDE_STYLE('',(#527,#515));
#524=SURFACE_SIDE_STYLE('',(#528,#516));
#525=SURFACE_SIDE_STYLE('',(#529,#517));
#526=SURFACE_STYLE_FILL_AREA(#530);
#527=SURFACE_STYLE_FILL_AREA(#531);
#528=SURFACE_STYLE_FILL_AREA(#532);
#529=SURFACE_STYLE_FILL_AREA(#533);
#530=FILL_AREA_STYLE('',(#534));
#531=FILL_AREA_STYLE('',(#535));
#532=FILL_AREA_STYLE('',(#536));
#533=FILL_AREA_STYLE('',(#537));
#534=FILL_AREA_STYLE_COLOUR('',#538);
#535=FILL_AREA_STYLE_COLOUR('',#539);
#536=FILL_AREA_STYLE_COLOUR('',#540);
#537=FILL_AREA_STYLE_COLOUR('',#541);
#538=COLOUR_RGB('',0.792156862745098,0.819607843137255,0.933333333333333);
#539=COLOUR_RGB('',0.2,0.2,0.2);
#540=COLOUR_RGB('',1.,1.,1.);
#541=COLOUR_RGB('',0.949019607843137,0.949019607843137,0.949019607843137);
ENDSEC;
END-ISO-10303-21;
