ISO-10303-21;
HEADER;
/* Generated by software containing ST-Developer
 * from STEP Tools, Inc. (www.steptools.com) 
 */

FILE_DESCRIPTION(
/* description */ (''),
/* implementation_level */ '2;1');

FILE_NAME(
/* name */ 'C:\\TEMP\\VBF 630 WITH CW BOWL.stp.stp',
/* time_stamp */ '2022-01-19T11:30:59+00:00',
/* author */ ('Sandfield Engineering'),
/* organization */ ('Sandfield Engineering'),
/* preprocessor_version */ 'ST-DEVELOPER v18.1',
/* originating_system */ 'Autodesk Inventor 2021',
/* authorisation */ '');

FILE_SCHEMA (('AUTOMOTIVE_DESIGN { 1 0 10303 214 3 1 1 }'));
ENDSEC;

DATA;
#10=MECHANICAL_DESIGN_GEOMETRIC_PRESENTATION_REPRESENTATION('',(#48,#49,
#50,#51,#52,#53,#54,#55,#56,#57,#58,#59,#60,#61,#62,#63),#640);
#11=ITEM_DEFINED_TRANSFORMATION($,$,#396,#442);
#12=(
REPRESENTATION_RELATIONSHIP($,$,#651,#650)
REPRESENTATION_RELATIONSHIP_WITH_TRANSFORMATION(#11)
SHAPE_REPRESENTATION_RELATIONSHIP()
);
#13=CONTEXT_DEPENDENT_SHAPE_REPRESENTATION(#12,#649);
#14=NEXT_ASSEMBLY_USAGE_OCCURRENCE('VBF 630.stp:1','VBF 630.stp:1',
'VBF 630.stp:1',#653,#654,'VBF 630.stp:1');
#15=SHAPE_REPRESENTATION_RELATIONSHIP('SRR','None',#651,#16);
#16=ADVANCED_BREP_SHAPE_REPRESENTATION('',(#17),#639);
#17=MANIFOLD_SOLID_BREP('Solid1',#318);
#18=LINE('',#560,#28);
#19=LINE('',#567,#29);
#20=LINE('',#575,#30);
#21=LINE('',#583,#31);
#22=LINE('',#591,#32);
#23=LINE('',#599,#33);
#24=LINE('',#607,#34);
#25=LINE('',#618,#35);
#26=LINE('',#625,#36);
#27=LINE('',#633,#37);
#28=VECTOR('',#457,328.);
#29=VECTOR('',#466,3.175);
#30=VECTOR('',#475,3.175);
#31=VECTOR('',#484,3.175);
#32=VECTOR('',#493,3.175);
#33=VECTOR('',#502,3.175);
#34=VECTOR('',#511,332.);
#35=VECTOR('',#526,330.);
#36=VECTOR('',#535,331.);
#37=VECTOR('',#546,360.);
#38=CYLINDRICAL_SURFACE('',#401,328.);
#39=CYLINDRICAL_SURFACE('',#405,3.175);
#40=CYLINDRICAL_SURFACE('',#408,3.175);
#41=CYLINDRICAL_SURFACE('',#412,3.175);
#42=CYLINDRICAL_SURFACE('',#416,3.175);
#43=CYLINDRICAL_SURFACE('',#420,3.175);
#44=CYLINDRICAL_SURFACE('',#424,332.);
#45=CYLINDRICAL_SURFACE('',#431,330.);
#46=CYLINDRICAL_SURFACE('',#435,331.);
#47=CYLINDRICAL_SURFACE('',#441,360.);
#48=STYLED_ITEM('',(#333),#302);
#49=STYLED_ITEM('',(#334),#303);
#50=STYLED_ITEM('',(#335),#305);
#51=STYLED_ITEM('',(#335),#306);
#52=STYLED_ITEM('',(#335),#307);
#53=STYLED_ITEM('',(#335),#308);
#54=STYLED_ITEM('',(#335),#309);
#55=STYLED_ITEM('',(#335),#310);
#56=STYLED_ITEM('',(#335),#311);
#57=STYLED_ITEM('',(#336),#312);
#58=STYLED_ITEM('',(#335),#313);
#59=STYLED_ITEM('',(#335),#314);
#60=STYLED_ITEM('',(#335),#315);
#61=STYLED_ITEM('',(#335),#316);
#62=STYLED_ITEM('',(#335),#317);
#63=STYLED_ITEM('',(#332),#17);
#64=FACE_BOUND('',#95,.T.);
#65=FACE_BOUND('',#105,.T.);
#66=FACE_BOUND('',#107,.T.);
#67=FACE_BOUND('',#110,.T.);
#68=FACE_BOUND('',#113,.T.);
#69=FACE_BOUND('',#114,.T.);
#70=FACE_BOUND('',#115,.T.);
#71=FACE_BOUND('',#116,.T.);
#72=FACE_BOUND('',#118,.T.);
#73=FACE_BOUND('',#119,.T.);
#74=FACE_BOUND('',#120,.T.);
#75=FACE_BOUND('',#121,.T.);
#76=FACE_BOUND('',#122,.T.);
#77=FACE_OUTER_BOUND('',#94,.T.);
#78=FACE_OUTER_BOUND('',#96,.T.);
#79=FACE_OUTER_BOUND('',#97,.T.);
#80=FACE_OUTER_BOUND('',#98,.T.);
#81=FACE_OUTER_BOUND('',#99,.T.);
#82=FACE_OUTER_BOUND('',#100,.T.);
#83=FACE_OUTER_BOUND('',#101,.T.);
#84=FACE_OUTER_BOUND('',#102,.T.);
#85=FACE_OUTER_BOUND('',#103,.T.);
#86=FACE_OUTER_BOUND('',#104,.T.);
#87=FACE_OUTER_BOUND('',#106,.T.);
#88=FACE_OUTER_BOUND('',#108,.T.);
#89=FACE_OUTER_BOUND('',#109,.T.);
#90=FACE_OUTER_BOUND('',#111,.T.);
#91=FACE_OUTER_BOUND('',#112,.T.);
#92=FACE_OUTER_BOUND('',#117,.T.);
#93=FACE_OUTER_BOUND('',#123,.T.);
#94=EDGE_LOOP('',(#218,#219));
#95=EDGE_LOOP('',(#220));
#96=EDGE_LOOP('',(#221,#222,#223,#224,#225,#226));
#97=EDGE_LOOP('',(#227,#228));
#98=EDGE_LOOP('',(#229,#230,#231,#232,#233));
#99=EDGE_LOOP('',(#234,#235,#236,#237,#238));
#100=EDGE_LOOP('',(#239,#240,#241,#242,#243));
#101=EDGE_LOOP('',(#244,#245,#246,#247,#248));
#102=EDGE_LOOP('',(#249,#250,#251,#252,#253));
#103=EDGE_LOOP('',(#254,#255,#256,#257));
#104=EDGE_LOOP('',(#258));
#105=EDGE_LOOP('',(#259,#260));
#106=EDGE_LOOP('',(#261));
#107=EDGE_LOOP('',(#262,#263));
#108=EDGE_LOOP('',(#264,#265,#266,#267,#268));
#109=EDGE_LOOP('',(#269));
#110=EDGE_LOOP('',(#270));
#111=EDGE_LOOP('',(#271,#272,#273,#274));
#112=EDGE_LOOP('',(#275));
#113=EDGE_LOOP('',(#276));
#114=EDGE_LOOP('',(#277));
#115=EDGE_LOOP('',(#278));
#116=EDGE_LOOP('',(#279));
#117=EDGE_LOOP('',(#280));
#118=EDGE_LOOP('',(#281));
#119=EDGE_LOOP('',(#282,#283));
#120=EDGE_LOOP('',(#284,#285));
#121=EDGE_LOOP('',(#286,#287));
#122=EDGE_LOOP('',(#288,#289));
#123=EDGE_LOOP('',(#290,#291,#292,#293));
#124=CIRCLE('',#398,328.);
#125=CIRCLE('',#399,328.);
#126=CIRCLE('',#400,3.175);
#127=CIRCLE('',#402,328.);
#128=CIRCLE('',#403,328.);
#129=CIRCLE('',#406,3.175);
#130=CIRCLE('',#407,3.175);
#131=CIRCLE('',#409,3.175);
#132=CIRCLE('',#410,3.175);
#133=CIRCLE('',#411,3.175);
#134=CIRCLE('',#413,3.175);
#135=CIRCLE('',#414,3.175);
#136=CIRCLE('',#415,3.175);
#137=CIRCLE('',#417,3.175);
#138=CIRCLE('',#418,3.175);
#139=CIRCLE('',#419,3.175);
#140=CIRCLE('',#421,3.175);
#141=CIRCLE('',#422,3.175);
#142=CIRCLE('',#423,3.175);
#143=CIRCLE('',#425,332.);
#144=CIRCLE('',#426,332.);
#145=CIRCLE('',#429,330.);
#146=CIRCLE('',#430,330.);
#147=CIRCLE('',#432,330.);
#148=CIRCLE('',#434,331.);
#149=CIRCLE('',#436,331.);
#150=CIRCLE('',#438,360.);
#151=CIRCLE('',#440,360.);
#152=VERTEX_POINT('',#552);
#153=VERTEX_POINT('',#553);
#154=VERTEX_POINT('',#556);
#155=VERTEX_POINT('',#559);
#156=VERTEX_POINT('',#561);
#157=VERTEX_POINT('',#566);
#158=VERTEX_POINT('',#568);
#159=VERTEX_POINT('',#572);
#160=VERTEX_POINT('',#574);
#161=VERTEX_POINT('',#576);
#162=VERTEX_POINT('',#580);
#163=VERTEX_POINT('',#582);
#164=VERTEX_POINT('',#584);
#165=VERTEX_POINT('',#588);
#166=VERTEX_POINT('',#590);
#167=VERTEX_POINT('',#592);
#168=VERTEX_POINT('',#596);
#169=VERTEX_POINT('',#598);
#170=VERTEX_POINT('',#600);
#171=VERTEX_POINT('',#604);
#172=VERTEX_POINT('',#606);
#173=VERTEX_POINT('',#611);
#174=VERTEX_POINT('',#612);
#175=VERTEX_POINT('',#616);
#176=VERTEX_POINT('',#620);
#177=VERTEX_POINT('',#623);
#178=VERTEX_POINT('',#627);
#179=VERTEX_POINT('',#630);
#180=EDGE_CURVE('',#152,#153,#124,.T.);
#181=EDGE_CURVE('',#153,#152,#125,.T.);
#182=EDGE_CURVE('',#154,#154,#126,.T.);
#183=EDGE_CURVE('',#153,#155,#18,.T.);
#184=EDGE_CURVE('',#155,#156,#127,.T.);
#185=EDGE_CURVE('',#156,#155,#128,.T.);
#186=EDGE_CURVE('',#154,#157,#19,.T.);
#187=EDGE_CURVE('',#157,#158,#129,.T.);
#188=EDGE_CURVE('',#158,#157,#130,.T.);
#189=EDGE_CURVE('',#159,#159,#131,.T.);
#190=EDGE_CURVE('',#159,#160,#20,.T.);
#191=EDGE_CURVE('',#160,#161,#132,.T.);
#192=EDGE_CURVE('',#161,#160,#133,.T.);
#193=EDGE_CURVE('',#162,#162,#134,.T.);
#194=EDGE_CURVE('',#162,#163,#21,.T.);
#195=EDGE_CURVE('',#163,#164,#135,.T.);
#196=EDGE_CURVE('',#164,#163,#136,.T.);
#197=EDGE_CURVE('',#165,#165,#137,.T.);
#198=EDGE_CURVE('',#165,#166,#22,.T.);
#199=EDGE_CURVE('',#166,#167,#138,.T.);
#200=EDGE_CURVE('',#167,#166,#139,.T.);
#201=EDGE_CURVE('',#168,#168,#140,.T.);
#202=EDGE_CURVE('',#168,#169,#23,.T.);
#203=EDGE_CURVE('',#169,#170,#141,.T.);
#204=EDGE_CURVE('',#170,#169,#142,.T.);
#205=EDGE_CURVE('',#171,#171,#143,.T.);
#206=EDGE_CURVE('',#171,#172,#24,.T.);
#207=EDGE_CURVE('',#172,#172,#144,.T.);
#208=EDGE_CURVE('',#173,#174,#145,.T.);
#209=EDGE_CURVE('',#174,#173,#146,.T.);
#210=EDGE_CURVE('',#175,#175,#147,.T.);
#211=EDGE_CURVE('',#175,#174,#25,.T.);
#212=EDGE_CURVE('',#176,#176,#148,.T.);
#213=EDGE_CURVE('',#177,#177,#149,.T.);
#214=EDGE_CURVE('',#177,#176,#26,.T.);
#215=EDGE_CURVE('',#178,#178,#150,.T.);
#216=EDGE_CURVE('',#179,#179,#151,.T.);
#217=EDGE_CURVE('',#178,#179,#27,.T.);
#218=ORIENTED_EDGE('',*,*,#180,.F.);
#219=ORIENTED_EDGE('',*,*,#181,.F.);
#220=ORIENTED_EDGE('',*,*,#182,.F.);
#221=ORIENTED_EDGE('',*,*,#180,.T.);
#222=ORIENTED_EDGE('',*,*,#183,.T.);
#223=ORIENTED_EDGE('',*,*,#184,.T.);
#224=ORIENTED_EDGE('',*,*,#185,.T.);
#225=ORIENTED_EDGE('',*,*,#183,.F.);
#226=ORIENTED_EDGE('',*,*,#181,.T.);
#227=ORIENTED_EDGE('',*,*,#185,.F.);
#228=ORIENTED_EDGE('',*,*,#184,.F.);
#229=ORIENTED_EDGE('',*,*,#182,.T.);
#230=ORIENTED_EDGE('',*,*,#186,.T.);
#231=ORIENTED_EDGE('',*,*,#187,.T.);
#232=ORIENTED_EDGE('',*,*,#188,.T.);
#233=ORIENTED_EDGE('',*,*,#186,.F.);
#234=ORIENTED_EDGE('',*,*,#189,.T.);
#235=ORIENTED_EDGE('',*,*,#190,.T.);
#236=ORIENTED_EDGE('',*,*,#191,.T.);
#237=ORIENTED_EDGE('',*,*,#192,.T.);
#238=ORIENTED_EDGE('',*,*,#190,.F.);
#239=ORIENTED_EDGE('',*,*,#193,.T.);
#240=ORIENTED_EDGE('',*,*,#194,.T.);
#241=ORIENTED_EDGE('',*,*,#195,.T.);
#242=ORIENTED_EDGE('',*,*,#196,.T.);
#243=ORIENTED_EDGE('',*,*,#194,.F.);
#244=ORIENTED_EDGE('',*,*,#197,.T.);
#245=ORIENTED_EDGE('',*,*,#198,.T.);
#246=ORIENTED_EDGE('',*,*,#199,.T.);
#247=ORIENTED_EDGE('',*,*,#200,.T.);
#248=ORIENTED_EDGE('',*,*,#198,.F.);
#249=ORIENTED_EDGE('',*,*,#201,.T.);
#250=ORIENTED_EDGE('',*,*,#202,.T.);
#251=ORIENTED_EDGE('',*,*,#203,.T.);
#252=ORIENTED_EDGE('',*,*,#204,.T.);
#253=ORIENTED_EDGE('',*,*,#202,.F.);
#254=ORIENTED_EDGE('',*,*,#205,.F.);
#255=ORIENTED_EDGE('',*,*,#206,.T.);
#256=ORIENTED_EDGE('',*,*,#207,.T.);
#257=ORIENTED_EDGE('',*,*,#206,.F.);
#258=ORIENTED_EDGE('',*,*,#207,.F.);
#259=ORIENTED_EDGE('',*,*,#188,.F.);
#260=ORIENTED_EDGE('',*,*,#187,.F.);
#261=ORIENTED_EDGE('',*,*,#205,.T.);
#262=ORIENTED_EDGE('',*,*,#208,.T.);
#263=ORIENTED_EDGE('',*,*,#209,.T.);
#264=ORIENTED_EDGE('',*,*,#210,.F.);
#265=ORIENTED_EDGE('',*,*,#211,.T.);
#266=ORIENTED_EDGE('',*,*,#208,.F.);
#267=ORIENTED_EDGE('',*,*,#209,.F.);
#268=ORIENTED_EDGE('',*,*,#211,.F.);
#269=ORIENTED_EDGE('',*,*,#212,.F.);
#270=ORIENTED_EDGE('',*,*,#210,.T.);
#271=ORIENTED_EDGE('',*,*,#213,.F.);
#272=ORIENTED_EDGE('',*,*,#214,.T.);
#273=ORIENTED_EDGE('',*,*,#212,.T.);
#274=ORIENTED_EDGE('',*,*,#214,.F.);
#275=ORIENTED_EDGE('',*,*,#215,.T.);
#276=ORIENTED_EDGE('',*,*,#201,.F.);
#277=ORIENTED_EDGE('',*,*,#197,.F.);
#278=ORIENTED_EDGE('',*,*,#193,.F.);
#279=ORIENTED_EDGE('',*,*,#189,.F.);
#280=ORIENTED_EDGE('',*,*,#216,.F.);
#281=ORIENTED_EDGE('',*,*,#213,.T.);
#282=ORIENTED_EDGE('',*,*,#204,.F.);
#283=ORIENTED_EDGE('',*,*,#203,.F.);
#284=ORIENTED_EDGE('',*,*,#200,.F.);
#285=ORIENTED_EDGE('',*,*,#199,.F.);
#286=ORIENTED_EDGE('',*,*,#196,.F.);
#287=ORIENTED_EDGE('',*,*,#195,.F.);
#288=ORIENTED_EDGE('',*,*,#192,.F.);
#289=ORIENTED_EDGE('',*,*,#191,.F.);
#290=ORIENTED_EDGE('',*,*,#215,.F.);
#291=ORIENTED_EDGE('',*,*,#217,.T.);
#292=ORIENTED_EDGE('',*,*,#216,.T.);
#293=ORIENTED_EDGE('',*,*,#217,.F.);
#294=PLANE('',#397);
#295=PLANE('',#404);
#296=PLANE('',#427);
#297=PLANE('',#428);
#298=PLANE('',#433);
#299=PLANE('',#437);
#300=PLANE('',#439);
#301=ADVANCED_FACE('',(#77,#64),#294,.T.);
#302=ADVANCED_FACE('',(#78),#38,.F.);
#303=ADVANCED_FACE('',(#79),#295,.F.);
#304=ADVANCED_FACE('',(#80),#39,.F.);
#305=ADVANCED_FACE('',(#81),#40,.F.);
#306=ADVANCED_FACE('',(#82),#41,.F.);
#307=ADVANCED_FACE('',(#83),#42,.F.);
#308=ADVANCED_FACE('',(#84),#43,.F.);
#309=ADVANCED_FACE('',(#85),#44,.T.);
#310=ADVANCED_FACE('',(#86,#65),#296,.F.);
#311=ADVANCED_FACE('',(#87,#66),#297,.T.);
#312=ADVANCED_FACE('',(#88),#45,.T.);
#313=ADVANCED_FACE('',(#89,#67),#298,.F.);
#314=ADVANCED_FACE('',(#90),#46,.T.);
#315=ADVANCED_FACE('',(#91,#68,#69,#70,#71),#299,.T.);
#316=ADVANCED_FACE('',(#92,#72,#73,#74,#75,#76),#300,.F.);
#317=ADVANCED_FACE('',(#93),#47,.T.);
#318=CLOSED_SHELL('',(#301,#302,#303,#304,#305,#306,#307,#308,#309,#310,
#311,#312,#313,#314,#315,#316,#317));
#319=DERIVED_UNIT_ELEMENT(#321,1.);
#320=DERIVED_UNIT_ELEMENT(#642,3.);
#321=(
MASS_UNIT()
NAMED_UNIT(*)
SI_UNIT($,.GRAM.)
);
#322=DERIVED_UNIT((#319,#320));
#323=MEASURE_REPRESENTATION_ITEM('density measure',
POSITIVE_RATIO_MEASURE(1.),#322);
#324=PROPERTY_DEFINITION_REPRESENTATION(#329,#326);
#325=PROPERTY_DEFINITION_REPRESENTATION(#330,#327);
#326=REPRESENTATION('material name',(#328),#639);
#327=REPRESENTATION('density',(#323),#639);
#328=DESCRIPTIVE_REPRESENTATION_ITEM('Generic','Generic');
#329=PROPERTY_DEFINITION('material property','material name',#654);
#330=PROPERTY_DEFINITION('material property','density of part',#654);
#331=PRESENTATION_STYLE_ASSIGNMENT((#337));
#332=PRESENTATION_STYLE_ASSIGNMENT((#338));
#333=PRESENTATION_STYLE_ASSIGNMENT((#339));
#334=PRESENTATION_STYLE_ASSIGNMENT((#340));
#335=PRESENTATION_STYLE_ASSIGNMENT((#341));
#336=PRESENTATION_STYLE_ASSIGNMENT((#342));
#337=SURFACE_STYLE_USAGE(.BOTH.,#353);
#338=SURFACE_STYLE_USAGE(.BOTH.,#354);
#339=SURFACE_STYLE_USAGE(.BOTH.,#355);
#340=SURFACE_STYLE_USAGE(.BOTH.,#356);
#341=SURFACE_STYLE_USAGE(.BOTH.,#357);
#342=SURFACE_STYLE_USAGE(.BOTH.,#358);
#343=SURFACE_STYLE_RENDERING_WITH_PROPERTIES($,#377,(#348));
#344=SURFACE_STYLE_RENDERING_WITH_PROPERTIES($,#378,(#349));
#345=SURFACE_STYLE_RENDERING_WITH_PROPERTIES($,#379,(#350));
#346=SURFACE_STYLE_RENDERING_WITH_PROPERTIES($,#380,(#351));
#347=SURFACE_STYLE_RENDERING_WITH_PROPERTIES($,#382,(#352));
#348=SURFACE_STYLE_TRANSPARENT(0.);
#349=SURFACE_STYLE_TRANSPARENT(0.);
#350=SURFACE_STYLE_TRANSPARENT(0.);
#351=SURFACE_STYLE_TRANSPARENT(0.);
#352=SURFACE_STYLE_TRANSPARENT(0.);
#353=SURFACE_SIDE_STYLE('',(#359,#343));
#354=SURFACE_SIDE_STYLE('',(#360,#344));
#355=SURFACE_SIDE_STYLE('',(#361,#345));
#356=SURFACE_SIDE_STYLE('',(#362,#346));
#357=SURFACE_SIDE_STYLE('',(#363));
#358=SURFACE_SIDE_STYLE('',(#364,#347));
#359=SURFACE_STYLE_FILL_AREA(#365);
#360=SURFACE_STYLE_FILL_AREA(#366);
#361=SURFACE_STYLE_FILL_AREA(#367);
#362=SURFACE_STYLE_FILL_AREA(#368);
#363=SURFACE_STYLE_FILL_AREA(#369);
#364=SURFACE_STYLE_FILL_AREA(#370);
#365=FILL_AREA_STYLE('',(#371));
#366=FILL_AREA_STYLE('',(#372));
#367=FILL_AREA_STYLE('',(#373));
#368=FILL_AREA_STYLE('',(#374));
#369=FILL_AREA_STYLE('',(#375));
#370=FILL_AREA_STYLE('',(#376));
#371=FILL_AREA_STYLE_COLOUR('',#377);
#372=FILL_AREA_STYLE_COLOUR('',#378);
#373=FILL_AREA_STYLE_COLOUR('',#379);
#374=FILL_AREA_STYLE_COLOUR('',#380);
#375=FILL_AREA_STYLE_COLOUR('',#381);
#376=FILL_AREA_STYLE_COLOUR('',#382);
#377=COLOUR_RGB('',0.792156862745098,0.819607843137255,0.933333333333333);
#378=COLOUR_RGB('',0.2,0.2,0.2);
#379=COLOUR_RGB('',0.949019607843137,0.949019607843137,0.949019607843137);
#380=COLOUR_RGB('',0.8,0.756862745098039,0.);
#381=COLOUR_RGB('',0.105882352941176,0.105882352941176,0.105882352941176);
#382=COLOUR_RGB('',0.745098039215686,0.737254901960784,0.729411764705882);
#383=DATE_TIME_ROLE('creation_date');
#384=DATE_TIME_ROLE('creation_date');
#385=APPLIED_DATE_AND_TIME_ASSIGNMENT(#387,#383,(#653));
#386=APPLIED_DATE_AND_TIME_ASSIGNMENT(#388,#384,(#654));
#387=DATE_AND_TIME(#389,#391);
#388=DATE_AND_TIME(#390,#392);
#389=CALENDAR_DATE(2020,29,6);
#390=CALENDAR_DATE(2020,29,6);
#391=LOCAL_TIME(11,18,32.,#393);
#392=LOCAL_TIME(11,18,21.,#394);
#393=COORDINATED_UNIVERSAL_TIME_OFFSET(0,0,.BEHIND.);
#394=COORDINATED_UNIVERSAL_TIME_OFFSET(0,0,.BEHIND.);
#395=AXIS2_PLACEMENT_3D('placement',#549,#443,#444);
#396=AXIS2_PLACEMENT_3D('placement',#550,#445,#446);
#397=AXIS2_PLACEMENT_3D('',#551,#447,#448);
#398=AXIS2_PLACEMENT_3D('',#554,#449,#450);
#399=AXIS2_PLACEMENT_3D('',#555,#451,#452);
#400=AXIS2_PLACEMENT_3D('',#557,#453,#454);
#401=AXIS2_PLACEMENT_3D('',#558,#455,#456);
#402=AXIS2_PLACEMENT_3D('',#562,#458,#459);
#403=AXIS2_PLACEMENT_3D('',#563,#460,#461);
#404=AXIS2_PLACEMENT_3D('',#564,#462,#463);
#405=AXIS2_PLACEMENT_3D('',#565,#464,#465);
#406=AXIS2_PLACEMENT_3D('',#569,#467,#468);
#407=AXIS2_PLACEMENT_3D('',#570,#469,#470);
#408=AXIS2_PLACEMENT_3D('',#571,#471,#472);
#409=AXIS2_PLACEMENT_3D('',#573,#473,#474);
#410=AXIS2_PLACEMENT_3D('',#577,#476,#477);
#411=AXIS2_PLACEMENT_3D('',#578,#478,#479);
#412=AXIS2_PLACEMENT_3D('',#579,#480,#481);
#413=AXIS2_PLACEMENT_3D('',#581,#482,#483);
#414=AXIS2_PLACEMENT_3D('',#585,#485,#486);
#415=AXIS2_PLACEMENT_3D('',#586,#487,#488);
#416=AXIS2_PLACEMENT_3D('',#587,#489,#490);
#417=AXIS2_PLACEMENT_3D('',#589,#491,#492);
#418=AXIS2_PLACEMENT_3D('',#593,#494,#495);
#419=AXIS2_PLACEMENT_3D('',#594,#496,#497);
#420=AXIS2_PLACEMENT_3D('',#595,#498,#499);
#421=AXIS2_PLACEMENT_3D('',#597,#500,#501);
#422=AXIS2_PLACEMENT_3D('',#601,#503,#504);
#423=AXIS2_PLACEMENT_3D('',#602,#505,#506);
#424=AXIS2_PLACEMENT_3D('',#603,#507,#508);
#425=AXIS2_PLACEMENT_3D('',#605,#509,#510);
#426=AXIS2_PLACEMENT_3D('',#608,#512,#513);
#427=AXIS2_PLACEMENT_3D('',#609,#514,#515);
#428=AXIS2_PLACEMENT_3D('',#610,#516,#517);
#429=AXIS2_PLACEMENT_3D('',#613,#518,#519);
#430=AXIS2_PLACEMENT_3D('',#614,#520,#521);
#431=AXIS2_PLACEMENT_3D('',#615,#522,#523);
#432=AXIS2_PLACEMENT_3D('',#617,#524,#525);
#433=AXIS2_PLACEMENT_3D('',#619,#527,#528);
#434=AXIS2_PLACEMENT_3D('',#621,#529,#530);
#435=AXIS2_PLACEMENT_3D('',#622,#531,#532);
#436=AXIS2_PLACEMENT_3D('',#624,#533,#534);
#437=AXIS2_PLACEMENT_3D('',#626,#536,#537);
#438=AXIS2_PLACEMENT_3D('',#628,#538,#539);
#439=AXIS2_PLACEMENT_3D('',#629,#540,#541);
#440=AXIS2_PLACEMENT_3D('',#631,#542,#543);
#441=AXIS2_PLACEMENT_3D('',#632,#544,#545);
#442=AXIS2_PLACEMENT_3D('',#634,#547,#548);
#443=DIRECTION('axis',(0.,0.,1.));
#444=DIRECTION('refdir',(1.,0.,0.));
#445=DIRECTION('axis',(0.,0.,1.));
#446=DIRECTION('refdir',(1.,0.,0.));
#447=DIRECTION('center_axis',(0.,0.,-1.));
#448=DIRECTION('ref_axis',(-1.,0.,0.));
#449=DIRECTION('center_axis',(0.,0.,1.));
#450=DIRECTION('ref_axis',(-1.,0.,0.));
#451=DIRECTION('center_axis',(0.,0.,1.));
#452=DIRECTION('ref_axis',(-1.,0.,0.));
#453=DIRECTION('center_axis',(0.,0.,-1.));
#454=DIRECTION('ref_axis',(-1.,0.,0.));
#455=DIRECTION('center_axis',(0.,0.,-1.));
#456=DIRECTION('ref_axis',(-1.,0.,0.));
#457=DIRECTION('',(0.,0.,-1.));
#458=DIRECTION('center_axis',(0.,0.,-1.));
#459=DIRECTION('ref_axis',(-1.,0.,0.));
#460=DIRECTION('center_axis',(0.,0.,-1.));
#461=DIRECTION('ref_axis',(-1.,0.,0.));
#462=DIRECTION('center_axis',(0.,0.,-1.));
#463=DIRECTION('ref_axis',(-1.,0.,0.));
#464=DIRECTION('center_axis',(0.,0.,1.));
#465=DIRECTION('ref_axis',(1.,0.,0.));
#466=DIRECTION('',(0.,0.,1.));
#467=DIRECTION('center_axis',(0.,0.,1.));
#468=DIRECTION('ref_axis',(1.,0.,0.));
#469=DIRECTION('center_axis',(0.,0.,1.));
#470=DIRECTION('ref_axis',(1.,0.,0.));
#471=DIRECTION('center_axis',(0.,0.,1.));
#472=DIRECTION('ref_axis',(1.,0.,0.));
#473=DIRECTION('center_axis',(0.,0.,-1.));
#474=DIRECTION('ref_axis',(-1.,0.,0.));
#475=DIRECTION('',(0.,0.,1.));
#476=DIRECTION('center_axis',(0.,0.,1.));
#477=DIRECTION('ref_axis',(1.,0.,0.));
#478=DIRECTION('center_axis',(0.,0.,1.));
#479=DIRECTION('ref_axis',(1.,0.,0.));
#480=DIRECTION('center_axis',(0.,0.,1.));
#481=DIRECTION('ref_axis',(1.,0.,0.));
#482=DIRECTION('center_axis',(0.,0.,-1.));
#483=DIRECTION('ref_axis',(-1.,0.,0.));
#484=DIRECTION('',(0.,0.,1.));
#485=DIRECTION('center_axis',(0.,0.,1.));
#486=DIRECTION('ref_axis',(1.,0.,0.));
#487=DIRECTION('center_axis',(0.,0.,1.));
#488=DIRECTION('ref_axis',(1.,0.,0.));
#489=DIRECTION('center_axis',(0.,0.,1.));
#490=DIRECTION('ref_axis',(1.,0.,0.));
#491=DIRECTION('center_axis',(0.,0.,-1.));
#492=DIRECTION('ref_axis',(-1.,0.,0.));
#493=DIRECTION('',(0.,0.,1.));
#494=DIRECTION('center_axis',(0.,0.,1.));
#495=DIRECTION('ref_axis',(1.,0.,0.));
#496=DIRECTION('center_axis',(0.,0.,1.));
#497=DIRECTION('ref_axis',(1.,0.,0.));
#498=DIRECTION('center_axis',(0.,0.,1.));
#499=DIRECTION('ref_axis',(1.,0.,0.));
#500=DIRECTION('center_axis',(0.,0.,-1.));
#501=DIRECTION('ref_axis',(-1.,0.,0.));
#502=DIRECTION('',(0.,0.,1.));
#503=DIRECTION('center_axis',(0.,0.,1.));
#504=DIRECTION('ref_axis',(1.,0.,0.));
#505=DIRECTION('center_axis',(0.,0.,1.));
#506=DIRECTION('ref_axis',(1.,0.,0.));
#507=DIRECTION('center_axis',(0.,0.,-1.));
#508=DIRECTION('ref_axis',(-1.,0.,0.));
#509=DIRECTION('center_axis',(0.,0.,-1.));
#510=DIRECTION('ref_axis',(1.,0.,0.));
#511=DIRECTION('',(0.,0.,1.));
#512=DIRECTION('center_axis',(0.,0.,-1.));
#513=DIRECTION('ref_axis',(1.,0.,0.));
#514=DIRECTION('center_axis',(0.,0.,-1.));
#515=DIRECTION('ref_axis',(-1.,0.,0.));
#516=DIRECTION('center_axis',(0.,0.,-1.));
#517=DIRECTION('ref_axis',(-1.,0.,0.));
#518=DIRECTION('center_axis',(0.,0.,1.));
#519=DIRECTION('ref_axis',(-1.,0.,0.));
#520=DIRECTION('center_axis',(0.,0.,1.));
#521=DIRECTION('ref_axis',(-1.,0.,0.));
#522=DIRECTION('center_axis',(0.,0.,-1.));
#523=DIRECTION('ref_axis',(-1.,0.,0.));
#524=DIRECTION('center_axis',(0.,0.,-1.));
#525=DIRECTION('ref_axis',(1.,0.,0.));
#526=DIRECTION('',(0.,0.,1.));
#527=DIRECTION('center_axis',(0.,0.,-1.));
#528=DIRECTION('ref_axis',(-1.,0.,0.));
#529=DIRECTION('center_axis',(0.,0.,-1.));
#530=DIRECTION('ref_axis',(1.,0.,0.));
#531=DIRECTION('center_axis',(0.,0.,-1.));
#532=DIRECTION('ref_axis',(-1.,0.,0.));
#533=DIRECTION('center_axis',(0.,0.,-1.));
#534=DIRECTION('ref_axis',(1.,0.,0.));
#535=DIRECTION('',(0.,0.,1.));
#536=DIRECTION('center_axis',(0.,0.,-1.));
#537=DIRECTION('ref_axis',(-1.,0.,0.));
#538=DIRECTION('center_axis',(0.,0.,-1.));
#539=DIRECTION('ref_axis',(1.,0.,0.));
#540=DIRECTION('center_axis',(0.,0.,-1.));
#541=DIRECTION('ref_axis',(-1.,0.,0.));
#542=DIRECTION('center_axis',(0.,0.,-1.));
#543=DIRECTION('ref_axis',(1.,0.,0.));
#544=DIRECTION('center_axis',(0.,0.,-1.));
#545=DIRECTION('ref_axis',(-1.,0.,0.));
#546=DIRECTION('',(0.,0.,1.));
#547=DIRECTION('',(0.,0.,1.));
#548=DIRECTION('',(1.,0.,0.));
#549=CARTESIAN_POINT('',(0.,0.,0.));
#550=CARTESIAN_POINT('',(0.,0.,0.));
#551=CARTESIAN_POINT('Origin',(0.,0.,266.99));
#552=CARTESIAN_POINT('',(-328.,0.,266.99));
#553=CARTESIAN_POINT('',(328.,-4.01684150120332E-14,266.99));
#554=CARTESIAN_POINT('Origin',(0.,0.,266.99));
#555=CARTESIAN_POINT('Origin',(0.,0.,266.99));
#556=CARTESIAN_POINT('',(-3.175,0.,266.99));
#557=CARTESIAN_POINT('Origin',(0.,0.,266.99));
#558=CARTESIAN_POINT('Origin',(0.,0.,267.));
#559=CARTESIAN_POINT('',(328.,-4.01684150120332E-14,27.));
#560=CARTESIAN_POINT('',(328.,-4.01684150120332E-14,267.));
#561=CARTESIAN_POINT('',(-328.,0.,27.));
#562=CARTESIAN_POINT('Origin',(0.,0.,27.));
#563=CARTESIAN_POINT('Origin',(0.,0.,27.));
#564=CARTESIAN_POINT('Origin',(0.,0.,27.));
#565=CARTESIAN_POINT('Origin',(0.,0.,-781.198491793647));
#566=CARTESIAN_POINT('',(-3.175,-3.88825358729285E-16,273.));
#567=CARTESIAN_POINT('',(-3.175,-3.88825358729285E-16,-781.198491793647));
#568=CARTESIAN_POINT('',(3.175,0.,273.));
#569=CARTESIAN_POINT('Origin',(0.,0.,273.));
#570=CARTESIAN_POINT('Origin',(0.,0.,273.));
#571=CARTESIAN_POINT('Origin',(-347.325504011833,0.,-1034.19849179365));
#572=CARTESIAN_POINT('',(-350.500504011833,0.,-0.0100000000000655));
#573=CARTESIAN_POINT('Origin',(-347.325504011833,0.,-0.0100000000000655));
#574=CARTESIAN_POINT('',(-350.500504011833,-3.88825358729285E-16,20.));
#575=CARTESIAN_POINT('',(-350.500504011833,-3.88825358729285E-16,-1034.19849179365));
#576=CARTESIAN_POINT('',(-344.150504011833,0.,20.));
#577=CARTESIAN_POINT('Origin',(-347.325504011833,0.,20.));
#578=CARTESIAN_POINT('Origin',(-347.325504011833,0.,20.));
#579=CARTESIAN_POINT('Origin',(0.,345.958887228351,-1034.19849179365));
#580=CARTESIAN_POINT('',(-3.175,345.958887228351,-0.0100000000000655));
#581=CARTESIAN_POINT('Origin',(0.,345.958887228351,-0.0100000000000655));
#582=CARTESIAN_POINT('',(-3.175,345.958887228351,20.));
#583=CARTESIAN_POINT('',(-3.175,345.958887228351,-1034.19849179365));
#584=CARTESIAN_POINT('',(3.175,345.958887228351,20.));
#585=CARTESIAN_POINT('Origin',(0.,345.958887228351,20.));
#586=CARTESIAN_POINT('Origin',(0.,345.958887228351,20.));
#587=CARTESIAN_POINT('Origin',(344.372139113713,0.,-1034.19849179365));
#588=CARTESIAN_POINT('',(341.197139113713,0.,-0.0100000000000655));
#589=CARTESIAN_POINT('Origin',(344.372139113713,0.,-0.0100000000000655));
#590=CARTESIAN_POINT('',(341.197139113713,-3.88825358729285E-16,20.));
#591=CARTESIAN_POINT('',(341.197139113713,-3.88825358729285E-16,-1034.19849179365));
#592=CARTESIAN_POINT('',(347.547139113713,0.,20.));
#593=CARTESIAN_POINT('Origin',(344.372139113713,0.,20.));
#594=CARTESIAN_POINT('Origin',(344.372139113713,0.,20.));
#595=CARTESIAN_POINT('Origin',(0.,-347.127209062558,-1034.19849179365));
#596=CARTESIAN_POINT('',(-3.175,-347.127209062558,-0.0100000000000655));
#597=CARTESIAN_POINT('Origin',(0.,-347.127209062558,-0.0100000000000655));
#598=CARTESIAN_POINT('',(-3.175,-347.127209062558,20.));
#599=CARTESIAN_POINT('',(-3.175,-347.127209062558,-1034.19849179365));
#600=CARTESIAN_POINT('',(3.175,-347.127209062558,20.));
#601=CARTESIAN_POINT('Origin',(0.,-347.127209062558,20.));
#602=CARTESIAN_POINT('Origin',(0.,-347.127209062558,20.));
#603=CARTESIAN_POINT('Origin',(0.,0.,273.));
#604=CARTESIAN_POINT('',(332.,0.,266.99));
#605=CARTESIAN_POINT('Origin',(0.,0.,266.99));
#606=CARTESIAN_POINT('',(332.,0.,273.));
#607=CARTESIAN_POINT('',(332.,-4.06582737316921E-14,273.));
#608=CARTESIAN_POINT('Origin',(0.,0.,273.));
#609=CARTESIAN_POINT('Origin',(0.,0.,273.));
#610=CARTESIAN_POINT('Origin',(0.,0.,266.99));
#611=CARTESIAN_POINT('',(-330.,0.,266.99));
#612=CARTESIAN_POINT('',(330.,-4.04133443718627E-14,266.99));
#613=CARTESIAN_POINT('Origin',(0.,0.,266.99));
#614=CARTESIAN_POINT('Origin',(0.,0.,266.99));
#615=CARTESIAN_POINT('Origin',(0.,0.,267.));
#616=CARTESIAN_POINT('',(330.,0.,27.));
#617=CARTESIAN_POINT('Origin',(0.,0.,27.));
#618=CARTESIAN_POINT('',(330.,-4.04133443718627E-14,267.));
#619=CARTESIAN_POINT('Origin',(0.,0.,27.));
#620=CARTESIAN_POINT('',(331.,0.,27.));
#621=CARTESIAN_POINT('Origin',(0.,0.,27.));
#622=CARTESIAN_POINT('Origin',(0.,0.,27.));
#623=CARTESIAN_POINT('',(331.,0.,20.));
#624=CARTESIAN_POINT('Origin',(0.,0.,20.));
#625=CARTESIAN_POINT('',(331.,-4.05358090517774E-14,27.));
#626=CARTESIAN_POINT('Origin',(0.,0.,-0.01));
#627=CARTESIAN_POINT('',(360.,0.,-0.01));
#628=CARTESIAN_POINT('Origin',(0.,0.,-0.01));
#629=CARTESIAN_POINT('Origin',(0.,0.,20.));
#630=CARTESIAN_POINT('',(360.,0.,20.));
#631=CARTESIAN_POINT('Origin',(0.,0.,20.));
#632=CARTESIAN_POINT('Origin',(0.,0.,20.));
#633=CARTESIAN_POINT('',(360.,-4.40872847693047E-14,20.));
#634=CARTESIAN_POINT('',(0.,0.,0.));
#635=UNCERTAINTY_MEASURE_WITH_UNIT(LENGTH_MEASURE(0.01),#641,
'DISTANCE_ACCURACY_VALUE',
'Maximum model space distance between geometric entities at asserted c
onnectivities');
#636=UNCERTAINTY_MEASURE_WITH_UNIT(LENGTH_MEASURE(0.01),#641,
'DISTANCE_ACCURACY_VALUE',
'Maximum model space distance between geometric entities at asserted c
onnectivities');
#637=UNCERTAINTY_MEASURE_WITH_UNIT(LENGTH_MEASURE(0.01),#641,
'DISTANCE_ACCURACY_VALUE',
'Maximum model space distance between geometric entities at asserted c
onnectivities');
#638=(
GEOMETRIC_REPRESENTATION_CONTEXT(3)
GLOBAL_UNCERTAINTY_ASSIGNED_CONTEXT((#635))
GLOBAL_UNIT_ASSIGNED_CONTEXT((#641,#643,#644))
REPRESENTATION_CONTEXT('','3D')
);
#639=(
GEOMETRIC_REPRESENTATION_CONTEXT(3)
GLOBAL_UNCERTAINTY_ASSIGNED_CONTEXT((#636))
GLOBAL_UNIT_ASSIGNED_CONTEXT((#641,#643,#644))
REPRESENTATION_CONTEXT('','3D')
);
#640=(
GEOMETRIC_REPRESENTATION_CONTEXT(3)
GLOBAL_UNCERTAINTY_ASSIGNED_CONTEXT((#637))
GLOBAL_UNIT_ASSIGNED_CONTEXT((#641,#643,#644))
REPRESENTATION_CONTEXT('','3D')
);
#641=(
LENGTH_UNIT()
NAMED_UNIT(*)
SI_UNIT(.MILLI.,.METRE.)
);
#642=(
LENGTH_UNIT()
NAMED_UNIT(*)
SI_UNIT(.CENTI.,.METRE.)
);
#643=(
NAMED_UNIT(*)
PLANE_ANGLE_UNIT()
SI_UNIT($,.RADIAN.)
);
#644=(
NAMED_UNIT(*)
SI_UNIT($,.STERADIAN.)
SOLID_ANGLE_UNIT()
);
#645=SHAPE_DEFINITION_REPRESENTATION(#647,#650);
#646=SHAPE_DEFINITION_REPRESENTATION(#648,#651);
#647=PRODUCT_DEFINITION_SHAPE('',$,#653);
#648=PRODUCT_DEFINITION_SHAPE('',$,#654);
#649=PRODUCT_DEFINITION_SHAPE($,$,#14);
#650=SHAPE_REPRESENTATION('',(#395,#442),#638);
#651=SHAPE_REPRESENTATION('',(#396),#639);
#652=PRODUCT_DEFINITION_CONTEXT('part definition',#660,'design');
#653=PRODUCT_DEFINITION('VBF 630 WITH CW BOWL.stp',
'VBF 630 WITH CW BOWL.stp',#655,#652);
#654=PRODUCT_DEFINITION('VBF 630.stp','VBF 630.stp',#656,#652);
#655=PRODUCT_DEFINITION_FORMATION('',$,#662);
#656=PRODUCT_DEFINITION_FORMATION('',$,#663);
#657=PRODUCT_RELATED_PRODUCT_CATEGORY('VBF 630 WITH CW BOWL.stp',
'VBF 630 WITH CW BOWL.stp',(#662));
#658=PRODUCT_RELATED_PRODUCT_CATEGORY('VBF 630.stp','VBF 630.stp',(#663));
#659=APPLICATION_PROTOCOL_DEFINITION('international standard',
'automotive_design',2009,#660);
#660=APPLICATION_CONTEXT(
'Core Data for Automotive Mechanical Design Process');
#661=PRODUCT_CONTEXT('part definition',#660,'mechanical');
#662=PRODUCT('VBF 630 WITH CW BOWL.stp','VBF 630 WITH CW BOWL.stp',$,(#661));
#663=PRODUCT('VBF 630.stp','VBF 630.stp',$,(#661));
ENDSEC;
END-ISO-10303-21;
